999
dxfrw 0.6.3
  0
SECTION
  2
HEADER
  9
$ACADVER
  1
AC1021
  9
$DWGCODEPAGE
  3
ANSI_1252
  9
$INSBASE
 10
0
 20
0
 30
0
  9
$EXTMIN
 10
-1582.3949168091
 20
-24.6942608322
 30
0
  9
$EXTMAX
 10
-58.3948681717
 20
1499.3057878052
 30
0
  9
$LIMMIN
 10
0
 20
0
  9
$LIMMAX
 10
1189
 20
841
  9
$ORTHOMODE
 70
    0
  9
$REGENMODE
 70
    1
  9
$FILLMODE
 70
    1
  9
$QTEXTMODE
 70
    0
  9
$MIRRTEXT
 70
    1
  9
$LTSCALE
 40
1
  9
$ATTMODE
 70
    1
  9
$TEXTSIZE
 40
3.5
  9
$TRACEWID
 40
1
  9
$TEXTSTYLE
  7
Standard
  9
$CLAYER
  8
0
  9
$CELTYPE
  6
ByLayer
  9
$CECOLOR
 62
  256
  9
$CELTSCALE
 40
1
  9
$DISPSILH
 70
    0
  9
$DIMSCALE
 40
1
  9
$DIMASZ
 40
3.302
  9
$DIMEXO
 40
1
  9
$DIMDLI
 40
3.75
  9
$DIMRND
 40
0
  9
$DIMDLE
 40
0
  9
$DIMEXE
 40
1
  9
$DIMTP
 40
0
  9
$DIMTM
 40
0
  9
$DIMTXT
 40
3.5
  9
$DIMCEN
 40
2.5
  9
$DIMTSZ
 40
0
  9
$DIMTOL
 70
    0
  9
$DIMLIM
 70
    0
  9
$DIMTIH
 70
    1
  9
$DIMTOH
 70
    1
  9
$DIMSE1
 70
    0
  9
$DIMSE2
 70
    0
  9
$DIMTAD
 70
    1
  9
$DIMZIN
 70
    0
  9
$DIMBLK
  1

  9
$DIMASO
 70
    1
  9
$DIMSHO
 70
    1
  9
$DIMPOST
  1

  9
$DIMAPOST
  1

  9
$DIMALT
 70
    0
  9
$DIMALTD
 70
    3
  9
$DIMALTF
 40
0.0393700787
  9
$DIMLFAC
 40
1
  9
$DIMTOFL
 70
    1
  9
$DIMTVP
 40
0
  9
$DIMTIX
 70
    0
  9
$DIMSOXD
 70
    0
  9
$DIMSAH
 70
    0
  9
$DIMBLK1
  1

  9
$DIMBLK2
  1

  9
$DIMSTYLE
  2
ISO-25
  9
$DIMCLRD
 70
    0
  9
$DIMCLRE
 70
    0
  9
$DIMCLRT
 70
    0
  9
$DIMTFAC
 40
1
  9
$DIMGAP
 40
1.524
  9
$DIMJUST
 70
    0
  9
$DIMSD1
 70
    0
  9
$DIMSD2
 70
    0
  9
$DIMTOLJ
 70
    0
  9
$DIMTZIN
 70
    0
  9
$DIMALTZ
 70
    0
  9
$DIMALTTZ
 70
    0
  9
$DIMUPT
 70
    0
  9
$DIMDEC
 70
    2
  9
$DIMTDEC
 70
    2
  9
$DIMALTU
 70
    2
  9
$DIMALTTD
 70
    3
  9
$DIMTXSTY
  7
Standard
  9
$DIMAUNIT
 70
    0
  9
$DIMADEC
 70
    0
  9
$DIMALTRND
 40
0
  9
$DIMAZIN
 70
    0
  9
$DIMDSEP
 70
   44
  9
$DIMATFIT
 70
    3
  9
$DIMFRAC
 70
    0
  9
$DIMLDRBLK
  1

  9
$DIMLUNIT
 70
    2
  9
$DIMLWD
 70
   -2
  9
$DIMLWE
 70
   -2
  9
$DIMTMOVE
 70
    0
  9
$DIMFXL
 40
1
  9
$DIMFXLON
 70
    0
  9
$DIMJOGANG
 40
0.7854
  9
$DIMTFILL
 70
    0
  9
$DIMTFILLCLR
 70
    0
  9
$DIMARCSYM
 70
    0
  9
$DIMLTYPE
  6

  9
$DIMLTEX1
  6

  9
$DIMLTEX2
  6

  9
$LUNITS
 70
    2
  9
$LUPREC
 70
    2
  9
$SKETCHINC
 40
1
  9
$FILLETRAD
 40
10
  9
$AUNITS
 70
    0
  9
$AUPREC
 70
    2
  9
$MENU
  1
.
  9
$ELEVATION
 40
0
  9
$PELEVATION
 40
0
  9
$THICKNESS
 40
0
  9
$LIMCHECK
 70
    0
  9
$CHAMFERA
 40
0
  9
$CHAMFERB
 40
0
  9
$CHAMFERC
 40
0
  9
$CHAMFERD
 40
0
  9
$SKPOLY
 70
    0
  9
$USRTIMER
 70
    1
  9
$ANGBASE
 50
0
  9
$ANGDIR
 70
    0
  9
$PDMODE
 70
    0
  9
$PDSIZE
 40
-1
  9
$PLINEWID
 40
0
  9
$SPLFRAME
 70
    0
  9
$SPLINETYPE
 70
    6
  9
$SPLINESEGS
 70
    8
  9
$HANDSEED
  5
20000
  9
$SURFTAB1
 70
    6
  9
$SURFTAB2
 70
    6
  9
$SURFTYPE
 70
    6
  9
$SURFU
 70
    6
  9
$SURFV
 70
    6
  9
$UCSBASE
  2

  9
$UCSNAME
  2

  9
$UCSORG
 10
0
 20
0
 30
0
  9
$UCSXDIR
 10
1
 20
0
 30
0
  9
$UCSYDIR
 10
0
 20
1
 30
0
  9
$UCSORTHOREF
  2

  9
$UCSORTHOVIEW
 70
    0
  9
$UCSORGTOP
 10
0
 20
0
 30
0
  9
$UCSORGBOTTOM
 10
0
 20
0
 30
0
  9
$UCSORGLEFT
 10
0
 20
0
 30
0
  9
$UCSORGRIGHT
 10
0
 20
0
 30
0
  9
$UCSORGFRONT
 10
0
 20
0
 30
0
  9
$UCSORGBACK
 10
0
 20
0
 30
0
  9
$PUCSBASE
  2

  9
$PUCSNAME
  2

  9
$PUCSORG
 10
0
 20
0
 30
0
  9
$PUCSXDIR
 10
1
 20
0
 30
0
  9
$PUCSYDIR
 10
0
 20
1
 30
0
  9
$PUCSORTHOREF
  2

  9
$PUCSORTHOVIEW
 70
    0
  9
$PUCSORGTOP
 10
0
 20
0
 30
0
  9
$PUCSORGBOTTOM
 10
0
 20
0
 30
0
  9
$PUCSORGLEFT
 10
0
 20
0
 30
0
  9
$PUCSORGRIGHT
 10
0
 20
0
 30
0
  9
$PUCSORGFRONT
 10
0
 20
0
 30
0
  9
$PUCSORGBACK
 10
0
 20
0
 30
0
  9
$USERI1
 70
    0
  9
$USERI2
 70
    0
  9
$USERI3
 70
    0
  9
$USERI4
 70
    0
  9
$USERI5
 70
    0
  9
$USERR1
 40
0
  9
$USERR2
 40
0
  9
$USERR3
 40
0
  9
$USERR4
 40
0
  9
$USERR5
 40
0
  9
$WORLDVIEW
 70
    1
  9
$SHADEDGE
 70
    3
  9
$SHADEDIF
 70
   70
  9
$TILEMODE
 70
    1
  9
$MAXACTVP
 70
   64
  9
$PINSBASE
 10
0
 20
0
 30
0
  9
$PLIMCHECK
 70
    0
  9
$PEXTMIN
 10
1e+020
 20
1e+020
 30
1e+020
  9
$PEXTMAX
 10
-1e+020
 20
-1e+020
 30
-1e+020
  9
$GRIDMODE
 70
    0
  9
$SNAPSTYLE
 70
    0
  9
$PLIMMIN
 10
0
 20
0
  9
$PLIMMAX
 10
420
 20
297
  9
$UNITMODE
 70
    0
  9
$VISRETAIN
 70
    1
  9
$PLINEGEN
 70
    0
  9
$PSLTSCALE
 70
    1
  9
$TREEDEPTH
 70
 3020
  9
$CMLSTYLE
  2
Standard
  9
$CMLJUST
 70
    0
  9
$CMLSCALE
 40
20
  9
$PROXYGRAPHICS
 70
    1
  9
$MEASUREMENT
 70
    1
  9
$CELWEIGHT
370
   -1
  9
$ENDCAPS
280
    0
  9
$JOINSTYLE
280
    0
  9
$LWDISPLAY
290
    1
  9
$INSUNITS
 70
    4
  9
$HYPERLINKBASE
  1

  9
$STYLESHEET
  1

  9
$XEDIT
290
    1
  9
$CEPSNTYPE
380
    0
  9
$PSTYLEMODE
290
    1
  9
$EXTNAMES
290
    1
  9
$PSVPSCALE
 40
0
  9
$OLESTARTUP
290
    0
  9
$SORTENTS
280
  127
  9
$INDEXCTL
280
    0
  9
$HIDETEXT
280
    1
  9
$XCLIPFRAME
290
    0
  9
$HALOGAP
280
    0
  9
$OBSCOLOR
 70
  257
  9
$OBSLTYPE
280
    0
  9
$INTERSECTIONDISPLAY
280
    0
  9
$INTERSECTIONCOLOR
 70
  257
  9
$DIMASSOC
280
    1
  9
$PROJECTNAME
  1

  9
$CAMERADISPLAY
290
    0
  9
$LENSLENGTH
 40
50
  9
$CAMERAHEIGHT
 40
0
  9
$STEPSPERSEC
 40
2
  9
$STEPSIZE
 40
50
  9
$3DDWFPREC
 40
2
  9
$PSOLWIDTH
 40
5
  9
$PSOLHEIGHT
 40
80
  9
$LOFTANG1
 40
1.570796326794897
  9
$LOFTANG2
 40
1.570796326794897
  9
$LOFTMAG1
 40
0
  9
$LOFTMAG2
 40
0
  9
$LOFTPARAM
 70
    7
  9
$LOFTNORMALS
280
    1
  9
$LATITUDE
 40
1
  9
$LONGITUDE
 40
1
  9
$NORTHDIRECTION
 40
0
  9
$TIMEZONE
 70
-8000
  9
$LIGHTGLYPHDISPLAY
280
    1
  9
$TILEMODELIGHTSYNCH
280
    1
  9
$SOLIDHIST
280
    1
  9
$SHOWHIST
280
    1
  9
$DWFFRAME
280
    2
  9
$DGNFRAME
280
    0
  9
$REALWORLDSCALE
290
    1
  9
$INTERFERECOLOR
 62
    1
  9
$CSHADOW
280
    0
  9
$SHADOWPLANELOCATION
 40
0
  0
ENDSEC
  0
SECTION
  2
CLASSES
  0
ENDSEC
  0
SECTION
  2
TABLES
  0
TABLE
  2
VPORT
  5
8
330
0
100
AcDbSymbolTable
 70
    1
  0
VPORT
  5
31
330
2
100
AcDbSymbolTableRecord
100
AcDbViewportTableRecord
  2
*ACTIVE
 70
    0
 10
0
 20
0
 11
1
 21
1
 12
377.1586348018662
 22
848.2342419061733
 13
0
 23
0
 14
10
 24
10
 15
10
 25
10
 16
0
 26
0
 36
1
 17
0
 27
0
 37
0
 40
1598.079274733599
 41
1.955223880597015
 42
50
 43
0
 44
0
 50
0
 51
0
 71
    0
 72
  100
 73
    1
 74
    3
 75
    0
 76
    0
 77
    0
 78
    0
281
    0
 65
    1
110
0
120
0
130
0
111
1
121
0
131
0
112
0
122
1
132
0
 79
    0
146
0
348
10020
 60
    7
 61
    5
292
1
282
    1
141
0
142
0
 63
  250
421
3358443
  0
ENDTAB
  0
TABLE
  2
LTYPE
  5
5
330
0
100
AcDbSymbolTable
 70
    4
  0
LTYPE
  5
14
330
5
100
AcDbSymbolTableRecord
100
AcDbLinetypeTableRecord
  2
ByBlock
 70
    0
  3

 72
   65
 73
    0
 40
0
  0
LTYPE
  5
15
330
5
100
AcDbSymbolTableRecord
100
AcDbLinetypeTableRecord
  2
ByLayer
 70
    0
  3

 72
   65
 73
    0
 40
0
  0
LTYPE
  5
16
330
5
100
AcDbSymbolTableRecord
100
AcDbLinetypeTableRecord
  2
Continuous
 70
    0
  3
Solid line
 72
   65
 73
    0
 40
0
  0
LTYPE
  5
32
330
5
100
AcDbSymbolTableRecord
100
AcDbLinetypeTableRecord
  2
DOT
 70
    0
  3
Dot . . . . . . . . . . . . . . . . . . . . . .
 72
   65
 73
    2
 40
6.35
 49
0
 74
    0
 49
-6.35
 74
    0
  0
LTYPE
  5
33
330
5
100
AcDbSymbolTableRecord
100
AcDbLinetypeTableRecord
  2
DOTTINY
 70
    0
  3
Dot (.15x) .....................................
 72
   65
 73
    2
 40
0.9525
 49
0
 74
    0
 49
-0.9525
 74
    0
  0
LTYPE
  5
34
330
5
100
AcDbSymbolTableRecord
100
AcDbLinetypeTableRecord
  2
DOT2
 70
    0
  3
Dot (.5x) .....................................
 72
   65
 73
    2
 40
3.175
 49
0
 74
    0
 49
-3.175
 74
    0
  0
LTYPE
  5
35
330
5
100
AcDbSymbolTableRecord
100
AcDbLinetypeTableRecord
  2
DOTX2
 70
    0
  3
Dot (2x) .  .  .  .  .  .  .  .  .  .  .  .  .
 72
   65
 73
    2
 40
12.7
 49
0
 74
    0
 49
-12.7
 74
    0
  0
LTYPE
  5
36
330
5
100
AcDbSymbolTableRecord
100
AcDbLinetypeTableRecord
  2
DASHED
 70
    0
  3
Dashed _ _ _ _ _ _ _ _ _ _ _ _ _ _ _ _ _
 72
   65
 73
    2
 40
19.05
 49
12.7
 74
    0
 49
-6.35
 74
    0
  0
LTYPE
  5
37
330
5
100
AcDbSymbolTableRecord
100
AcDbLinetypeTableRecord
  2
DASHEDTINY
 70
    0
  3
Dashed (.15x) _ _ _ _ _ _ _ _ _ _ _ _ _ _ _ _ _
 72
   65
 73
    2
 40
2.8575
 49
1.905
 74
    0
 49
-0.9525
 74
    0
  0
LTYPE
  5
38
330
5
100
AcDbSymbolTableRecord
100
AcDbLinetypeTableRecord
  2
DASHED2
 70
    0
  3
Dashed (.5x) _ _ _ _ _ _ _ _ _ _ _ _ _ _ _ _ _
 72
   65
 73
    2
 40
9.524999999999999
 49
6.35
 74
    0
 49
-3.175
 74
    0
  0
LTYPE
  5
39
330
5
100
AcDbSymbolTableRecord
100
AcDbLinetypeTableRecord
  2
DASHEDX2
 70
    0
  3
Dashed (2x) ____  ____  ____  ____  ____  ___
 72
   65
 73
    2
 40
38.09999999999999
 49
25.4
 74
    0
 49
-12.7
 74
    0
  0
LTYPE
  5
3A
330
5
100
AcDbSymbolTableRecord
100
AcDbLinetypeTableRecord
  2
DASHDOT
 70
    0
  3
Dash dot __ . __ . __ . __ . __ . __ . __ . __
 72
   65
 73
    4
 40
25.4
 49
12.7
 74
    0
 49
-6.35
 74
    0
 49
0
 74
    0
 49
-6.35
 74
    0
  0
LTYPE
  5
3B
330
5
100
AcDbSymbolTableRecord
100
AcDbLinetypeTableRecord
  2
DASHDOTTINY
 70
    0
  3
Dash dot (.15x) _._._._._._._._._._._._._._._.
 72
   65
 73
    4
 40
3.81
 49
1.905
 74
    0
 49
-0.9525
 74
    0
 49
0
 74
    0
 49
-0.9525
 74
    0
  0
LTYPE
  5
3C
330
5
100
AcDbSymbolTableRecord
100
AcDbLinetypeTableRecord
  2
DASHDOT2
 70
    0
  3
Dash dot (.5x) _._._._._._._._._._._._._._._.
 72
   65
 73
    4
 40
12.7
 49
6.35
 74
    0
 49
-3.175
 74
    0
 49
0
 74
    0
 49
-3.175
 74
    0
  0
LTYPE
  5
3D
330
5
100
AcDbSymbolTableRecord
100
AcDbLinetypeTableRecord
  2
DASHDOTX2
 70
    0
  3
Dash dot (2x) ____  .  ____  .  ____  .  ___
 72
   65
 73
    4
 40
50.8
 49
25.4
 74
    0
 49
-12.7
 74
    0
 49
0
 74
    0
 49
-12.7
 74
    0
  0
LTYPE
  5
3E
330
5
100
AcDbSymbolTableRecord
100
AcDbLinetypeTableRecord
  2
DIVIDE
 70
    0
  3
Divide ____ . . ____ . . ____ . . ____ . . ____
 72
   65
 73
    6
 40
31.75
 49
12.7
 74
    0
 49
-6.35
 74
    0
 49
0
 74
    0
 49
-6.35
 74
    0
 49
0
 74
    0
 49
-6.35
 74
    0
  0
LTYPE
  5
3F
330
5
100
AcDbSymbolTableRecord
100
AcDbLinetypeTableRecord
  2
DIVIDETINY
 70
    0
  3
Divide (.15x) __..__..__..__..__..__..__..__.._
 72
   65
 73
    6
 40
4.7625
 49
1.905
 74
    0
 49
-0.9525
 74
    0
 49
0
 74
    0
 49
-0.9525
 74
    0
 49
0
 74
    0
 49
-0.9525
 74
    0
  0
LTYPE
  5
40
330
5
100
AcDbSymbolTableRecord
100
AcDbLinetypeTableRecord
  2
DIVIDE2
 70
    0
  3
Divide (.5x) __..__..__..__..__..__..__..__.._
 72
   65
 73
    6
 40
15.875
 49
6.35
 74
    0
 49
-3.175
 74
    0
 49
0
 74
    0
 49
-3.175
 74
    0
 49
0
 74
    0
 49
-3.175
 74
    0
  0
LTYPE
  5
41
330
5
100
AcDbSymbolTableRecord
100
AcDbLinetypeTableRecord
  2
DIVIDEX2
 70
    0
  3
Divide (2x) ________  .  .  ________  .  .  _
 72
   65
 73
    6
 40
63.5
 49
25.4
 74
    0
 49
-12.7
 74
    0
 49
0
 74
    0
 49
-12.7
 74
    0
 49
0
 74
    0
 49
-12.7
 74
    0
  0
LTYPE
  5
42
330
5
100
AcDbSymbolTableRecord
100
AcDbLinetypeTableRecord
  2
BORDER
 70
    0
  3
Border __ __ . __ __ . __ __ . __ __ . __ __ .
 72
   65
 73
    6
 40
44.45
 49
12.7
 74
    0
 49
-6.35
 74
    0
 49
12.7
 74
    0
 49
-6.35
 74
    0
 49
0
 74
    0
 49
-6.35
 74
    0
  0
LTYPE
  5
43
330
5
100
AcDbSymbolTableRecord
100
AcDbLinetypeTableRecord
  2
BORDERTINY
 70
    0
  3
Border (.15x) __.__.__.__.__.__.__.__.__.__.__.
 72
   65
 73
    6
 40
6.6675
 49
1.905
 74
    0
 49
-0.9525
 74
    0
 49
1.905
 74
    0
 49
-0.9525
 74
    0
 49
0
 74
    0
 49
-0.9525
 74
    0
  0
LTYPE
  5
44
330
5
100
AcDbSymbolTableRecord
100
AcDbLinetypeTableRecord
  2
BORDER2
 70
    0
  3
Border (.5x) __.__.__.__.__.__.__.__.__.__.__.
 72
   65
 73
    6
 40
22.225
 49
6.35
 74
    0
 49
-3.175
 74
    0
 49
6.35
 74
    0
 49
-3.175
 74
    0
 49
0
 74
    0
 49
-3.175
 74
    0
  0
LTYPE
  5
45
330
5
100
AcDbSymbolTableRecord
100
AcDbLinetypeTableRecord
  2
BORDERX2
 70
    0
  3
Border (2x) ____  ____  .  ____  ____  .  ___
 72
   65
 73
    6
 40
88.89999999999999
 49
25.4
 74
    0
 49
-12.7
 74
    0
 49
25.4
 74
    0
 49
-12.7
 74
    0
 49
0
 74
    0
 49
-12.7
 74
    0
  0
LTYPE
  5
46
330
5
100
AcDbSymbolTableRecord
100
AcDbLinetypeTableRecord
  2
CENTER
 70
    0
  3
Center ____ _ ____ _ ____ _ ____ _ ____ _ ____
 72
   65
 73
    4
 40
50.8
 49
31.75
 74
    0
 49
-6.35
 74
    0
 49
6.35
 74
    0
 49
-6.35
 74
    0
  0
LTYPE
  5
47
330
5
100
AcDbSymbolTableRecord
100
AcDbLinetypeTableRecord
  2
CENTERTINY
 70
    0
  3
Center (.15x) ___ _ ___ _ ___ _ ___ _ ___ _ ___
 72
   65
 73
    4
 40
7.62
 49
4.7625
 74
    0
 49
-0.9525
 74
    0
 49
0.9525
 74
    0
 49
-0.9525
 74
    0
  0
LTYPE
  5
48
330
5
100
AcDbSymbolTableRecord
100
AcDbLinetypeTableRecord
  2
CENTER2
 70
    0
  3
Center (.5x) ___ _ ___ _ ___ _ ___ _ ___ _ ___
 72
   65
 73
    4
 40
28.575
 49
19.05
 74
    0
 49
-3.175
 74
    0
 49
3.175
 74
    0
 49
-3.175
 74
    0
  0
LTYPE
  5
49
330
5
100
AcDbSymbolTableRecord
100
AcDbLinetypeTableRecord
  2
CENTERX2
 70
    0
  3
Center (2x) ________  __  ________  __  _____
 72
   65
 73
    4
 40
101.6
 49
63.5
 74
    0
 49
-12.7
 74
    0
 49
12.7
 74
    0
 49
-12.7
 74
    0
  0
ENDTAB
  0
TABLE
  2
LAYER
  5
2
330
0
100
AcDbSymbolTable
 70
    1
  0
LAYER
  5
10
330
2
100
AcDbSymbolTableRecord
100
AcDbLayerTableRecord
  2
0
 70
    0
 62
    7
  6
CONTINUOUS
370
   -3
390
F
  0
LAYER
  5
4A
330
2
100
AcDbSymbolTableRecord
100
AcDbLayerTableRecord
  2
FORMAT
 70
    0
 62
    7
  6
CONTINUOUS
370
   -3
390
F
  0
ENDTAB
  0
TABLE
  2
STYLE
  5
3
330
0
100
AcDbSymbolTable
 70
    3
  0
STYLE
  5
4B
330
2
100
AcDbSymbolTableRecord
100
AcDbTextStyleTableRecord
  2
sldtextstyle1
 70
    0
 40
0
 41
1
 50
0
 71
    0
 42
1
  3
sldtextstyle1
  4

  0
STYLE
  5
4C
330
2
100
AcDbSymbolTableRecord
100
AcDbTextStyleTableRecord
  2
Standard
 70
    0
 40
0
 41
1
 50
0
 71
    0
 42
1
  3
txt
  4

  0
ENDTAB
  0
TABLE
  2
VIEW
  5
6
330
0
100
AcDbSymbolTable
 70
    0
  0
ENDTAB
  0
TABLE
  2
UCS
  5
7
330
0
100
AcDbSymbolTable
 70
    0
  0
ENDTAB
  0
TABLE
  2
APPID
  5
9
330
0
100
AcDbSymbolTable
 70
    1
  0
APPID
  5
12
330
9
100
AcDbSymbolTableRecord
100
AcDbRegAppTableRecord
  2
ACAD
 70
    0
  0
APPID
  5
4D
330
9
100
AcDbSymbolTableRecord
100
AcDbRegAppTableRecord
  2
LibreCad
 70
    0
  0
ENDTAB
  0
TABLE
  2
DIMSTYLE
  5
A
330
0
100
AcDbSymbolTable
 70
    1
100
AcDbDimStyleTable
 71
    1
  0
DIMSTYLE
105
4E
330
A
100
AcDbSymbolTableRecord
100
AcDbDimStyleTableRecord
  2
Standard
 70
    0
 40
1
 41
3.302
 42
1
 43
0.38
 44
1
 45
0
 46
0
 47
0
 48
0
 49
1
140
3.5
141
0.09
142
0
143
25.4
144
1
145
0
146
1
147
1.524
148
0
 71
    0
 72
    0
 73
    1
 74
    1
 75
    0
 76
    0
 77
    0
 78
    0
 79
    0
170
    0
171
    2
172
    0
173
    0
174
    0
175
    0
176
    0
177
    0
178
    0
179
    0
271
    2
272
    4
273
    2
274
    2
275
    0
276
    0
277
    2
278
   44
279
    0
280
    0
281
    0
282
    0
283
    1
284
    0
285
    0
286
    0
288
    0
289
    3
340
Standard
341

371
   -2
372
   -2
  0
ENDTAB
  0
TABLE
  2
BLOCK_RECORD
  5
1
330
0
100
AcDbSymbolTable
 70
    2
  0
BLOCK_RECORD
  5
1F
330
1
100
AcDbSymbolTableRecord
100
AcDbBlockTableRecord
  2
*Model_Space
 70
    0
280
    1
281
    0
  0
BLOCK_RECORD
  5
1E
330
1
100
AcDbSymbolTableRecord
100
AcDbBlockTableRecord
  2
*Paper_Space
 70
    0
280
    1
281
    0
  0
BLOCK_RECORD
  5
4F
330
1
100
AcDbSymbolTableRecord
100
AcDbBlockTableRecord
  2
SW_NOTE_0
 70
    0
280
    1
281
    0
  0
BLOCK_RECORD
  5
52
330
1
100
AcDbSymbolTableRecord
100
AcDbBlockTableRecord
  2
SW_NOTE_1
 70
    0
280
    1
281
    0
  0
ENDTAB
  0
ENDSEC
  0
SECTION
  2
BLOCKS
  0
BLOCK
  5
20
330
1F
100
AcDbEntity
  8
0
100
AcDbBlockBegin
  2
*Model_Space
 70
    0
 10
0
 20
0
 30
0
  3
*Model_Space
  1

  0
ENDBLK
  5
21
330
1F
100
AcDbEntity
  8
0
100
AcDbBlockEnd
  0
BLOCK
  5
1C
330
1B
100
AcDbEntity
  8
0
100
AcDbBlockBegin
  2
*Paper_Space
 70
    0
 10
0
 20
0
 30
0
  3
*Paper_Space
  1

  0
ENDBLK
  5
1D
330
1F
100
AcDbEntity
  8
0
100
AcDbBlockEnd
  0
BLOCK
  5
50
330
4F
100
AcDbEntity
  8
0
100
AcDbBlockBegin
  2
SW_NOTE_0
 70
    0
 10
0
 20
0
  3
SW_NOTE_0
  1

  0
MTEXT
  5
55
100
AcDbEntity
  8
0
  6
CONTINUOUS
 62
    0
370
    0
100
AcDbMText
 10
0
 20
1.9336016097
 30
0
 40
1.5
 41
30.91666539465386
 71
    1
 72
    1
  1
UNLESS OTHERWISE SPECIFIED:
  7
sldtextstyle1
210
0
220
0
230
1
 50
0
 73
    1
 44
1
  0
MTEXT
  5
56
100
AcDbEntity
  8
0
  6
CONTINUOUS
 62
    0
370
    0
100
AcDbMText
 10
0
 20
-0.5663983345
 30
0
 40
1.5
 41
33.04166571265709
 71
    1
 72
    1
  1
DIMENSIONS ARE IN MILLIMETERS
  7
sldtextstyle1
210
0
220
0
230
1
 50
0
 73
    1
 44
1
  0
MTEXT
  5
57
100
AcDbEntity
  8
0
  6
CONTINUOUS
 62
    0
370
    0
100
AcDbMText
 10
0
 20
-3.0663982786
 30
0
 40
1.5
 41
16.29166603066022
 71
    1
 72
    1
  1
SURFACE FINISH:
  7
sldtextstyle1
210
0
220
0
230
1
 50
0
 73
    1
 44
1
  0
MTEXT
  5
58
100
AcDbEntity
  8
0
  6
CONTINUOUS
 62
    0
370
    0
100
AcDbMText
 10
0
 20
-5.5663982227
 30
0
 40
1.5
 41
12.83333301533011
 71
    1
 72
    1
  1
TOLERANCES:
  7
sldtextstyle1
210
0
220
0
230
1
 50
0
 73
    1
 44
1
  0
MTEXT
  5
59
100
AcDbEntity
  8
0
  6
CONTINUOUS
 62
    0
370
    0
100
AcDbMText
 10
1.6875
 20
-8.066398166800001
 30
0
 40
1.5
 41
7
 71
    1
 72
    1
  1
LINEAR:
  7
sldtextstyle1
210
0
220
0
230
1
 50
0
 73
    1
 44
1
  0
MTEXT
  5
5A
100
AcDbEntity
  8
0
  6
CONTINUOUS
 62
    0
370
    0
100
AcDbMText
 10
1.6875
 20
-10.5663981109
 30
0
 40
1.5
 41
9.5
 71
    1
 72
    1
  1
ANGULAR:
  7
sldtextstyle1
210
0
220
0
230
1
 50
0
 73
    1
 44
1
  0
ENDBLK
  5
51
330
4F
100
AcDbEntity
  8
0
100
AcDbBlockEnd
  0
BLOCK
  5
53
330
52
100
AcDbEntity
  8
0
100
AcDbBlockBegin
  2
SW_NOTE_1
 70
    0
 10
0
 20
0
  3
SW_NOTE_1
  1

  0
MTEXT
  5
5B
100
AcDbEntity
  8
0
  6
CONTINUOUS
 62
    0
370
    0
100
AcDbMText
 10
0
 20
1.9336016097
 30
0
 40
1.5
 41
12.62500000000018
 71
    1
 72
    1
  1
DEBURR AND
  7
sldtextstyle1
210
0
220
0
230
1
 50
0
 73
    1
 44
1
  0
MTEXT
  5
5C
100
AcDbEntity
  8
0
  6
CONTINUOUS
 62
    0
370
    0
100
AcDbMText
 10
0
 20
-0.5663983345
 30
0
 40
1.5
 41
14.12499968199677
 71
    1
 72
    1
  1
BREAK SHARP
  7
sldtextstyle1
210
0
220
0
230
1
 50
0
 73
    1
 44
1
  0
MTEXT
  5
5D
100
AcDbEntity
  8
0
  6
CONTINUOUS
 62
    0
370
    0
100
AcDbMText
 10
0
 20
-3.0663982786
 30
0
 40
1.5
 41
5.833333015330203
 71
    1
 72
    1
  1
EDGES
  7
sldtextstyle1
210
0
220
0
230
1
 50
0
 73
    1
 44
1
  0
ENDBLK
  5
54
330
52
100
AcDbEntity
  8
0
100
AcDbBlockEnd
  0
ENDSEC
  0
SECTION
  2
ENTITIES
  0
LINE
  5
5E
100
AcDbEntity
  8
0
  6
CONTINUOUS
 62
    7
370
   15
100
AcDbLine
 10
-1483.781095839
 20
479.3111712967
 11
-1485.0448558693
 21
493.7559397255
  0
LINE
  5
5F
100
AcDbEntity
  8
0
  6
CONTINUOUS
 62
    7
370
   15
100
AcDbLine
 10
-1469.6067909365
 20
478.5435826813
 11
-1481.6143999462
 21
477.4930508171
  0
LINE
  5
60
100
AcDbEntity
  8
0
  6
CONTINUOUS
 62
    7
370
   15
100
AcDbLine
 10
-1519.6067879563
 20
463.8093144928
 11
-1469.6067909365
 21
468.1837291752
  0
LINE
  5
61
100
AcDbEntity
  8
0
  6
CONTINUOUS
 62
    7
370
   15
100
AcDbLine
 10
-1519.6067879563
 20
474.1691679989
 11
-1519.6067879563
 21
463.8093144928
  0
LINE
  5
62
100
AcDbEntity
  8
0
  6
CONTINUOUS
 62
    7
370
   15
100
AcDbLine
 10
-1507.5154642229
 20
475.227001432
 11
-1519.6067879563
 21
474.1691679989
  0
ARC
  5
63
100
AcDbEntity
  8
0
  6
CONTINUOUS
 62
    7
370
   15
100
AcDbCircle
 10
-1505.5230712154
 20
475.4013276058
 40
1.999999999999887
100
AcDbArc
 50
185
 51
95
  0
ARC
  5
64
100
AcDbEntity
  8
0
  6
CONTINUOUS
 62
    7
370
   15
100
AcDbCircle
 10
-1507.1354524563
 20
493.8309295205
 40
2.00000000000036
100
AcDbArc
 50
275
 51
185
  0
LINE
  5
65
100
AcDbEntity
  8
0
  6
CONTINUOUS
 62
    7
370
   15
100
AcDbLine
 10
-1519.6067879563
 20
895.2694566284
 11
-1519.6067879563
 21
492.7397997414
  0
LINE
  5
66
100
AcDbEntity
  8
0
  6
CONTINUOUS
 62
    7
370
   15
100
AcDbLine
 10
-1509.1278443699
 20
894.3526775870999
 11
-1519.6067879563
 21
895.2694566284
  0
ARC
  5
67
100
AcDbEntity
  8
0
  6
CONTINUOUS
 62
    7
370
   15
100
AcDbCircle
 10
-1507.1354524563
 20
894.1783525524
 40
2.000000000000143
100
AcDbArc
 50
175
 51
85
  0
LINE
  5
68
100
AcDbEntity
  8
0
  6
CONTINUOUS
 62
    7
370
   15
100
AcDbLine
 10
-1505.6973809963
 20
910.6155664955
 11
-1506.9611410265
 21
896.1707384621
  0
ARC
  5
69
100
AcDbEntity
  8
0
  6
CONTINUOUS
 62
    7
370
   15
100
AcDbCircle
 10
-1505.5230712154
 20
912.6079544670999
 40
2.00000000000002
100
AcDbArc
 50
265
 51
175
  0
ARC
  5
6A
100
AcDbEntity
  8
0
  6
CONTINUOUS
 62
    7
370
   15
100
AcDbCircle
 10
-1483.6067878574
 20
910.6905281267
 40
2.00000000000004
100
AcDbArc
 50
355
 51
265
  0
LINE
  5
6B
100
AcDbEntity
  8
0
  6
CONTINUOUS
 62
    7
370
   15
100
AcDbLine
 10
-1485.0448558693
 20
894.2533166443
 11
-1483.781095839
 21
908.6981446777
  0
LINE
  5
6C
100
AcDbEntity
  8
0
  6
CONTINUOUS
 62
    7
370
   15
100
AcDbLine
 10
-1469.6067909365
 20
890.8950121437
 11
-1483.2267800932
 21
892.0866282021
  0
LINE
  5
6D
100
AcDbEntity
  8
0
  6
CONTINUOUS
 62
    7
370
   15
100
AcDbLine
 10
-1469.6067909365
 20
497.1142442261
 11
-1469.6067909365
 21
890.8950121437
  0
LINE
  5
6E
100
AcDbEntity
  8
0
  6
CONTINUOUS
 62
    7
370
   15
100
AcDbLine
 10
-1483.2267800932
 20
495.9226877724
 11
-1469.6067909365
 21
497.1142442261
  0
ARC
  5
6F
100
AcDbEntity
  8
0
  6
CONTINUOUS
 62
    7
370
   15
100
AcDbCircle
 10
-1485.2191690983
 20
495.7483558609
 40
2.000000000000133
100
AcDbArc
 50
5
 51
275
  0
ARC
  5
70
100
AcDbEntity
  8
0
  6
CONTINUOUS
 62
    7
370
   15
100
AcDbCircle
 10
-1483.6067878574
 20
477.3187539462
 40
2.000000000000133
100
AcDbArc
 50
95
 51
5
  0
LINE
  5
71
100
AcDbEntity
  8
0
  6
CONTINUOUS
 62
    7
370
   15
100
AcDbLine
 10
-1506.9611410265
 20
491.8385179077
 11
-1505.6973809963
 21
477.3936898743
  0
LINE
  5
72
100
AcDbEntity
  8
0
  6
CONTINUOUS
 62
    7
370
   15
100
AcDbLine
 10
-1469.6067909365
 20
919.8255569969
 11
-1519.6067879563
 21
924.2000014816
  0
LINE
  5
73
100
AcDbEntity
  8
0
  6
CONTINUOUS
 62
    7
370
   15
100
AcDbLine
 10
-1469.6067909365
 20
468.1837291752
 11
-1469.6067909365
 21
478.5435826813
  0
LINE
  5
74
100
AcDbEntity
  8
0
  6
CONTINUOUS
 62
    7
370
   15
100
AcDbLine
 10
-1481.6143999462
 20
910.5162055526999
 11
-1469.6067909365
 21
909.4656736885
  0
LINE
  5
75
100
AcDbEntity
  8
0
  6
CONTINUOUS
 62
    7
370
   15
100
AcDbLine
 10
-1519.6067879563
 20
492.7397997414
 11
-1509.1278443699
 21
493.6566383873
  0
LINE
  5
76
100
AcDbEntity
  8
0
  6
CONTINUOUS
 62
    7
370
   15
100
AcDbLine
 10
-1519.6067879563
 20
913.8401181732
 11
-1507.5154642229
 21
912.7822549378
  0
LINE
  5
77
100
AcDbEntity
  8
0
  6
CONTINUOUS
 62
    7
370
   15
100
AcDbLine
 10
-1519.6067879563
 20
924.2000014816
 11
-1519.6067879563
 21
913.8401181732
  0
ARC
  5
78
100
AcDbEntity
  8
0
  6
CONTINUOUS
 62
    7
370
   15
100
AcDbCircle
 10
-1485.2191690983
 20
892.260926212
 40
2.00000000000037
100
AcDbArc
 50
85
 51
355
  0
LINE
  5
79
100
AcDbEntity
  8
0
  6
CONTINUOUS
 62
    7
370
   15
100
AcDbLine
 10
-1469.6067909365
 20
909.4656736885
 11
-1469.6067909365
 21
919.8255569969
  0
LINE
  5
7A
100
AcDbEntity
  8
0
  6
CONTINUOUS
 62
    7
370
   15
100
AcDbLine
 10
-1148.6861000424
 20
1004.8920543228
 11
-1149.9498377209
 21
1019.3368823563
  0
ARC
  5
7B
100
AcDbEntity
  8
0
  6
CONTINUOUS
 62
    7
370
   15
100
AcDbCircle
 10
-1148.5117802587
 20
1002.8997237571
 40
2.00000000000038
100
AcDbArc
 50
95
 51
5
  0
LINE
  5
7C
100
AcDbEntity
  8
0
  6
CONTINUOUS
 62
    7
370
   15
100
AcDbLine
 10
-1134.5117876892
 20
1004.1245849167
 11
-1146.5193817978
 21
1003.0739934479
  0
LINE
  5
7D
100
AcDbEntity
  8
0
  6
CONTINUOUS
 62
    7
370
   15
100
AcDbLine
 10
-1134.5117876892
 20
993.7647016083
 11
-1134.5117876892
 21
1004.1245849167
  0
LINE
  5
7E
100
AcDbEntity
  8
0
  6
CONTINUOUS
 62
    7
370
   15
100
AcDbLine
 10
-1184.5117698078
 20
989.3903167282
 11
-1134.5117876892
 21
993.7647016083
  0
LINE
  5
7F
100
AcDbEntity
  8
0
  6
CONTINUOUS
 62
    7
370
   15
100
AcDbLine
 10
-1184.5117698078
 20
999.7500808273001
 11
-1184.5117698078
 21
989.3903167282
  0
LINE
  5
80
100
AcDbEntity
  8
0
  6
CONTINUOUS
 62
    7
370
   15
100
AcDbLine
 10
-1172.4204609757
 20
1000.8079440628
 11
-1184.5117698078
 21
999.7500808273001
  0
ARC
  5
81
100
AcDbEntity
  8
0
  6
CONTINUOUS
 62
    7
370
   15
100
AcDbCircle
 10
-1170.4280636168
 20
1000.9822974167
 40
2.000000000000246
100
AcDbArc
 50
185
 51
95
  0
LINE
  5
82
100
AcDbEntity
  8
0
  6
CONTINUOUS
 62
    7
370
   15
100
AcDbLine
 10
-1171.8661377793
 20
1017.4195201431
 11
-1170.6023702984
 21
1002.9746921097
  0
ARC
  5
83
100
AcDbEntity
  8
0
  6
CONTINUOUS
 62
    7
370
   15
100
AcDbCircle
 10
-1172.0404448576
 20
1019.4118993314
 40
2.000000000000246
100
AcDbArc
 50
275
 51
185
  0
LINE
  5
84
100
AcDbEntity
  8
0
  6
CONTINUOUS
 62
    7
370
   15
100
AcDbLine
 10
-1184.5117698078
 20
1420.8504588638
 11
-1184.5117698078
 21
1018.3207423721
  0
LINE
  5
85
100
AcDbEntity
  8
0
  6
CONTINUOUS
 62
    7
370
   15
100
AcDbLine
 10
-1174.0328262215
 20
1419.9336202179
 11
-1184.5117698078
 21
1420.8504588638
  0
ARC
  5
86
100
AcDbEntity
  8
0
  6
CONTINUOUS
 62
    7
370
   15
100
AcDbCircle
 10
-1172.0404448576
 20
1419.7593223633
 40
2.00000000000036
100
AcDbArc
 50
175
 51
85
  0
LINE
  5
87
100
AcDbEntity
  8
0
  6
CONTINUOUS
 62
    7
370
   15
100
AcDbLine
 10
-1170.6023702984
 20
1436.1965091263
 11
-1171.8661377793
 21
1421.7516810928
  0
ARC
  5
88
100
AcDbEntity
  8
0
  6
CONTINUOUS
 62
    7
370
   15
100
AcDbCircle
 10
-1170.4280636168
 20
1438.188924278
 40
2.000000000000153
100
AcDbArc
 50
265
 51
175
  0
LINE
  5
89
100
AcDbEntity
  8
0
  6
CONTINUOUS
 62
    7
370
   15
100
AcDbLine
 10
-1184.5117698078
 20
1439.4211204086
 11
-1172.4204609757
 21
1438.3632571732
  0
LINE
  5
8A
100
AcDbEntity
  8
0
  6
CONTINUOUS
 62
    7
370
   15
100
AcDbLine
 10
-1184.5117698078
 20
1449.781003717
 11
-1184.5117698078
 21
1439.4211204086
  0
LINE
  5
8B
100
AcDbEntity
  8
0
  6
CONTINUOUS
 62
    7
370
   15
100
AcDbLine
 10
-1134.5117876892
 20
1445.4064996277
 11
-1184.5117698078
 21
1449.781003717
  0
LINE
  5
8C
100
AcDbEntity
  8
0
  6
CONTINUOUS
 62
    7
370
   15
100
AcDbLine
 10
-1134.5117876892
 20
1435.0466163193
 11
-1134.5117876892
 21
1445.4064996277
  0
LINE
  5
8D
100
AcDbEntity
  8
0
  6
CONTINUOUS
 62
    7
370
   15
100
AcDbLine
 10
-1146.5193817978
 20
1436.0972077881
 11
-1134.5117876892
 21
1435.0466163193
  0
ARC
  5
8E
100
AcDbEntity
  8
0
  6
CONTINUOUS
 62
    7
370
   15
100
AcDbCircle
 10
-1148.5117802587
 20
1436.2714979376
 40
2.00000000000038
100
AcDbArc
 50
355
 51
265
  0
LINE
  5
8F
100
AcDbEntity
  8
0
  6
CONTINUOUS
 62
    7
370
   15
100
AcDbLine
 10
-1149.9498377209
 20
1419.8343188797
 11
-1148.6861000424
 21
1434.2791469132
  0
ARC
  5
90
100
AcDbEntity
  8
0
  6
CONTINUOUS
 62
    7
370
   15
100
AcDbCircle
 10
-1150.1241614996
 20
1417.8418960229
 40
1.999999999999927
100
AcDbArc
 50
85
 51
355
  0
LINE
  5
91
100
AcDbEntity
  8
0
  6
CONTINUOUS
 62
    7
370
   15
100
AcDbLine
 10
-1134.5117876892
 20
1416.4759547745
 11
-1148.131776846
 21
1417.6675708328
  0
LINE
  5
92
100
AcDbEntity
  8
0
  6
CONTINUOUS
 62
    7
370
   15
100
AcDbLine
 10
-1134.5117876892
 20
1022.6952464615
 11
-1134.5117876892
 21
1416.4759547745
  0
LINE
  5
93
100
AcDbEntity
  8
0
  6
CONTINUOUS
 62
    7
370
   15
100
AcDbLine
 10
-1148.131776846
 20
1021.5036304031
 11
-1134.5117876892
 21
1022.6952464615
  0
ARC
  5
94
100
AcDbEntity
  8
0
  6
CONTINUOUS
 62
    7
370
   15
100
AcDbCircle
 10
-1150.1241614996
 20
1021.3293256718
 40
1.999999999999927
100
AcDbArc
 50
5
 51
275
  0
LINE
  5
95
100
AcDbEntity
  8
0
  6
CONTINUOUS
 62
    7
370
   15
100
AcDbLine
 10
-1184.5117698078
 20
1018.3207423721
 11
-1174.0328262215
 21
1019.2375810181
  0
LINE
  5
96
100
AcDbEntity
  8
0
  6
CONTINUOUS
 62
    7
370
   15
100
AcDbLine
 10
-758.9637825852
 20
360.220494989
 11
-722.5952933197
 21
357.1244807278
  0
LINE
  5
97
100
AcDbEntity
  8
0
  6
CONTINUOUS
 62
    7
370
   15
100
AcDbLine
 10
-720.4328368073
 20
358.9476377998
 11
-719.202954567
 21
373.3953566586
  0
LINE
  5
98
100
AcDbEntity
  8
0
  6
CONTINUOUS
 62
    7
370
   15
100
AcDbLine
 10
-721.0260818367
 20
375.557813171
 11
-757.3945711022
 21
378.6537976299
  0
ARC
  5
99
100
AcDbEntity
  8
0
  6
CONTINUOUS
 62
    7
370
   15
100
AcDbCircle
 10
-759.3873425099
 20
378.823455687
 40
1.999999999999941
100
AcDbArc
 50
355.1342036327
 51
265.1342036327
  0
LINE
  5
9A
100
AcDbEntity
  8
0
  6
CONTINUOUS
 62
    7
370
   15
100
AcDbLine
 10
-759.55696801
 20
376.8306703602
 11
-760.7869098549
 21
362.3829216992
  0
LINE
  5
9B
100
AcDbEntity
  8
0
  6
CONTINUOUS
 62
    7
370
   15
100
AcDbLine
 10
-639.9949381714
 20
307.201299194
 11
-639.9949381714
 21
727.2012860809
  0
LINE
  5
9C
100
AcDbEntity
  8
0
  6
CONTINUOUS
 62
    7
370
   15
100
AcDbLine
 10
-839.9949262505
 20
307.201299194
 11
-639.9949381714
 21
307.201299194
  0
ARC
  5
9D
100
AcDbEntity
  8
0
  6
CONTINUOUS
 62
    7
370
   15
100
AcDbCircle
 10
-719.0333000689
 20
659.0144624228
 40
1.999999999999922
100
AcDbArc
 50
184.8657963673
 51
94.86579636730001
  0
LINE
  5
9E
100
AcDbEntity
  8
0
  6
CONTINUOUS
 62
    7
370
   15
100
AcDbLine
 10
-719.202954567
 20
661.0072286163
 11
-720.4328368073
 21
675.4549772774
  0
ARC
  5
9F
100
AcDbEntity
  8
0
  6
CONTINUOUS
 62
    7
370
   15
100
AcDbCircle
 10
-720.602509357
 20
677.4477904514
 40
2.000000000000064
100
AcDbArc
 50
274.8657963673
 51
184.8657963673
  0
LINE
  5
A0
100
AcDbEntity
  8
0
  6
CONTINUOUS
 62
    7
370
   15
100
AcDbLine
 10
-722.5952933197
 20
677.2781641518
 11
-758.9637825852
 21
674.1821200882
  0
ARC
  5
A1
100
AcDbEntity
  8
0
  6
CONTINUOUS
 62
    7
370
   15
100
AcDbCircle
 10
-760.956551798
 20
674.0124944424
 40
2.000000000000044
100
AcDbArc
 50
4.8657963673
 51
274.8657963673
  0
LINE
  5
A2
100
AcDbEntity
  8
0
  6
CONTINUOUS
 62
    7
370
   15
100
AcDbLine
 10
-760.7869098549
 20
672.0197231804
 11
-759.55696801
 21
657.5719745194
  0
ARC
  5
A3
100
AcDbEntity
  8
0
  6
CONTINUOUS
 62
    7
370
   15
100
AcDbCircle
 10
-759.3873425099
 20
655.5791664137
 40
2.000000000000044
100
AcDbArc
 50
94.86579636730001
 51
4.8657963673
  0
LINE
  5
A4
100
AcDbEntity
  8
0
  6
CONTINUOUS
 62
    7
370
   15
100
AcDbLine
 10
-757.3945711022
 20
655.748787645
 11
-721.0260818367
 21
658.8448317085
  0
ARC
  5
A5
100
AcDbEntity
  8
0
  6
CONTINUOUS
 62
    7
370
   15
100
AcDbCircle
 10
-719.0333000689
 20
375.3881596779
 40
2.000000000000049
100
AcDbArc
 50
265.1342036327
 51
175.1342036327
  0
ARC
  5
A6
100
AcDbEntity
  8
0
  6
CONTINUOUS
 62
    7
370
   15
100
AcDbCircle
 10
-720.602509357
 20
356.9548316493
 40
2.000000000000163
100
AcDbArc
 50
175.1342036327
 51
85.13420363269999
  0
LINE
  5
A7
100
AcDbEntity
  8
0
  6
CONTINUOUS
 62
    7
370
   15
100
AcDbLine
 10
-639.9949381714
 20
727.2012860809
 11
-839.9949262505
 21
727.2012860809
  0
LINE
  5
A8
100
AcDbEntity
  8
0
  6
CONTINUOUS
 62
    7
370
   15
100
AcDbLine
 10
-839.9949262505
 20
727.2012860809
 11
-839.9949262505
 21
307.201299194
  0
ARC
  5
A9
100
AcDbEntity
  8
0
  6
CONTINUOUS
 62
    7
370
   15
100
AcDbCircle
 10
-760.956551798
 20
360.3901276584
 40
2.000000000000172
100
AcDbArc
 50
85.13420363269999
 51
355.1342036327
  0
LINE
  5
AA
100
AcDbEntity
  8
0
  6
CONTINUOUS
 62
    7
370
   15
100
AcDbLine
 10
-1118.9021954899
 20
454.9421103035
 11
-1003.5683701401
 21
454.9421103035
  0
LINE
  5
AB
100
AcDbEntity
  8
0
  6
CONTINUOUS
 62
    7
370
   15
100
AcDbLine
 10
-1140.9333238964
 20
727.2387774025
 11
-1118.9021954899
 21
454.9421103035
  0
LINE
  5
AC
100
AcDbEntity
  8
0
  6
CONTINUOUS
 62
    7
370
   15
100
AcDbLine
 10
-1249.4768987065
 20
849.4987518822001
 11
-1140.9333238964
 21
727.2387774025
  0
ARC
  5
AD
100
AcDbEntity
  8
0
  6
CONTINUOUS
 62
    7
370
   15
100
AcDbCircle
 10
-1331.497202221
 20
799.4987651931
 40
50.00000000000009
100
AcDbArc
 50
90
 51
177.1844433158
  0
LINE
  5
AE
100
AcDbEntity
  8
0
  6
CONTINUOUS
 62
    7
370
   15
100
AcDbLine
 10
-1426.6914615994
 20
604.9489409957999
 11
-1426.6914615994
 21
586.4489705597
  0
LINE
  5
AF
100
AcDbEntity
  8
0
  6
CONTINUOUS
 62
    7
370
   15
100
AcDbLine
 10
-1447.6914594536
 20
606.9489748512
 11
-1428.6914656525
 21
606.9489748512
  0
LINE
  5
B0
100
AcDbEntity
  8
0
  6
CONTINUOUS
 62
    7
370
   15
100
AcDbLine
 10
-1447.6914594536
 20
918.3792502914999
 11
-1447.6914594536
 21
606.9489748512
  0
ARC
  5
B1
100
AcDbEntity
  8
0
  6
CONTINUOUS
 62
    7
370
   15
100
AcDbCircle
 10
-1435.636332929
 20
878.9892618944
 40
2.000000000000227
100
AcDbArc
 50
90
 51
0
  0
ARC
  5
B2
100
AcDbEntity
  8
0
  6
CONTINUOUS
 62
    7
370
   15
100
AcDbCircle
 10
-1417.436332929
 20
878.9892618944
 40
2.000000000000227
100
AcDbArc
 50
180
 51
90
  0
LINE
  5
B3
100
AcDbEntity
  8
0
  6
CONTINUOUS
 62
    7
370
   15
100
AcDbLine
 10
-1384.6914658909
 20
918.3792502914999
 11
-1417.4363354807
 21
918.3792502914999
  0
LINE
  5
B4
100
AcDbEntity
  8
0
  6
CONTINUOUS
 62
    7
370
   15
100
AcDbLine
 10
-1346.6914633875
 20
936.2792403732
 11
-1382.6914618378
 21
936.2792403732
  0
ARC
  5
B5
100
AcDbEntity
  8
0
  6
CONTINUOUS
 62
    7
370
   15
100
AcDbCircle
 10
-1346.6914602012
 20
918.3792618944
 40
2
100
AcDbArc
 50
90
 51
0
  0
LINE
  5
B6
100
AcDbEntity
  8
0
  6
CONTINUOUS
 62
    7
370
   15
100
AcDbLine
 10
-1276.6914556389
 20
920.3792841469
 11
-1276.6914556389
 21
936.2792403732
  0
ARC
  5
B7
100
AcDbEntity
  8
0
  6
CONTINUOUS
 62
    7
370
   15
100
AcDbCircle
 10
-1276.6914602012
 20
918.3792618944
 40
2
100
AcDbArc
 50
90
 51
0
  0
LINE
  5
B8
100
AcDbEntity
  8
0
  6
CONTINUOUS
 62
    7
370
   15
100
AcDbLine
 10
-1244.6914503937
 20
918.3792502914999
 11
-1274.6914515858
 21
918.3792502914999
  0
ARC
  5
B9
100
AcDbEntity
  8
0
  6
CONTINUOUS
 62
    7
370
   15
100
AcDbCircle
 10
-1242.6914602012
 20
918.3792618944
 40
2
100
AcDbArc
 50
180
 51
90
  0
ARC
  5
BA
100
AcDbEntity
  8
0
  6
CONTINUOUS
 62
    7
370
   15
100
AcDbCircle
 10
-1206.6914602012
 20
918.3792618944
 40
2.000000000000227
100
AcDbArc
 50
90
 51
0
  0
LINE
  5
BB
100
AcDbEntity
  8
0
  6
CONTINUOUS
 62
    7
370
   15
100
AcDbLine
 10
-1177.4363408451
 20
918.3792502914999
 11
-1204.6914587384
 21
918.3792502914999
  0
ARC
  5
BC
100
AcDbEntity
  8
0
  6
CONTINUOUS
 62
    7
370
   15
100
AcDbCircle
 10
-1177.436332929
 20
878.9892618944
 40
2.000000000000227
100
AcDbArc
 50
90
 51
0
  0
ARC
  5
BD
100
AcDbEntity
  8
0
  6
CONTINUOUS
 62
    7
370
   15
100
AcDbCircle
 10
-1159.236332929
 20
878.9892618944
 40
2.000000000000227
100
AcDbArc
 50
180
 51
90
  0
LINE
  5
BE
100
AcDbEntity
  8
0
  6
CONTINUOUS
 62
    7
370
   15
100
AcDbLine
 10
-1058.2378099327
 20
1241.0058410202
 11
-1134.4355533486
 21
918.3792502914999
  0
ARC
  5
BF
100
AcDbEntity
  8
0
  6
CONTINUOUS
 62
    7
370
   15
100
AcDbCircle
 10
-1048.5838488061
 20
1281.8813203018
 40
1.999999999999967
100
AcDbArc
 50
166.7114244426
 51
76.7114244425
  0
LINE
  5
C0
100
AcDbEntity
  8
0
  6
CONTINUOUS
 62
    7
370
   15
100
AcDbLine
 10
-1070.5760906105
 20
606.9489748512
 11
-1070.5760906105
 21
918.3792502914999
  0
LINE
  5
C1
100
AcDbEntity
  8
0
  6
CONTINUOUS
 62
    7
370
   15
100
AcDbLine
 10
-1089.576114214
 20
606.9489748512
 11
-1070.5760906105
 21
606.9489748512
  0
ARC
  5
C2
100
AcDbEntity
  8
0
  6
CONTINUOUS
 62
    7
370
   15
100
AcDbCircle
 10
-1091.5761125334
 20
606.9489459128999
 40
2
100
AcDbArc
 50
0
 51
270
  0
LINE
  5
C3
100
AcDbEntity
  8
0
  6
CONTINUOUS
 62
    7
370
   15
100
AcDbLine
 10
-1091.5761182671
 20
604.9489409957999
 11
-1091.5761182671
 21
586.4489705597
  0
LINE
  5
C4
100
AcDbEntity
  8
0
  6
CONTINUOUS
 62
    7
370
   15
100
AcDbLine
 10
-1089.576114214
 20
584.4489367043
 11
-1070.5760906105
 21
584.4489367043
  0
ARC
  5
C5
100
AcDbEntity
  8
0
  6
CONTINUOUS
 62
    7
370
   15
100
AcDbCircle
 10
-1426.6914602012
 20
606.9489459128999
 40
2.000000000000227
100
AcDbArc
 50
270
 51
180
  0
LINE
  5
C6
100
AcDbEntity
  8
0
  6
CONTINUOUS
 62
    7
370
   15
100
AcDbLine
 10
-1070.5760906105
 20
918.3792502914999
 11
-963.5683486824
 21
1459.4340951477
  0
LINE
  5
C7
100
AcDbEntity
  8
0
  6
CONTINUOUS
 62
    7
370
   15
100
AcDbLine
 10
-1242.6914463406
 20
936.2792403732
 11
-1242.6914463406
 21
920.3792841469
  0
ARC
  5
C8
100
AcDbEntity
  8
0
  6
CONTINUOUS
 62
    7
370
   15
100
AcDbCircle
 10
-1030.5761125334
 20
557.2764245281001
 40
40
100
AcDbArc
 50
180
 51
270
  0
LINE
  5
C9
100
AcDbEntity
  8
0
  6
CONTINUOUS
 62
    7
370
   15
100
AcDbLine
 10
-1206.6914627915
 20
920.3792841469
 11
-1206.6914627915
 21
936.2792403732
  0
LINE
  5
CA
100
AcDbEntity
  8
0
  6
CONTINUOUS
 62
    7
370
   15
100
AcDbLine
 10
-1312.6914689903
 20
936.2792403732
 11
-1312.6914689903
 21
920.3792841469
  0
ARC
  5
CB
100
AcDbEntity
  8
0
  6
CONTINUOUS
 62
    7
370
   15
100
AcDbCircle
 10
-1382.6914602012
 20
918.3792618944
 40
2
100
AcDbArc
 50
180
 51
90
  0
ARC
  5
CC
100
AcDbEntity
  8
0
  6
CONTINUOUS
 62
    7
370
   15
100
AcDbCircle
 10
-1312.6914602012
 20
918.3792618944
 40
2
100
AcDbArc
 50
180
 51
90
  0
LINE
  5
CD
100
AcDbEntity
  8
0
  6
CONTINUOUS
 62
    7
370
   15
100
AcDbLine
 10
-1447.6914594536
 20
454.9421103035
 11
-1398.5030392771
 21
454.9421103035
  0
LINE
  5
CE
100
AcDbEntity
  8
0
  6
CONTINUOUS
 62
    7
370
   15
100
AcDbLine
 10
-1331.4972112541
 20
849.4987518822001
 11
-1249.4768987065
 21
849.4987518822001
  0
LINE
  5
CF
100
AcDbEntity
  8
0
  6
CONTINUOUS
 62
    7
370
   15
100
AcDbLine
 10
-1177.4363408451
 20
880.9892566238
 11
-1177.4363408451
 21
918.3792502914999
  0
LINE
  5
D0
100
AcDbEntity
  8
0
  6
CONTINUOUS
 62
    7
370
   15
100
AcDbLine
 10
-1314.6914730435
 20
918.3792502914999
 11
-1344.6914593344
 21
918.3792502914999
  0
ARC
  5
D1
100
AcDbEntity
  8
0
  6
CONTINUOUS
 62
    7
370
   15
100
AcDbCircle
 10
-1426.6914602012
 20
584.4489459128999
 40
2.000000000000227
100
AcDbArc
 50
180
 51
90
  0
LINE
  5
D2
100
AcDbEntity
  8
0
  6
CONTINUOUS
 62
    7
370
   15
100
AcDbLine
 10
-1433.6363265877
 20
878.9892823731
 11
-1419.4363395338
 21
878.9892823731
  0
ARC
  5
D3
100
AcDbEntity
  8
0
  6
CONTINUOUS
 62
    7
370
   15
100
AcDbCircle
 10
-1091.5761125334
 20
584.4489459128999
 40
2
100
AcDbArc
 50
90
 51
0
  0
LINE
  5
D4
100
AcDbEntity
  8
0
  6
CONTINUOUS
 62
    7
370
   15
100
AcDbLine
 10
-1417.4363354807
 20
880.9892566238
 11
-1417.4363354807
 21
918.3792502914999
  0
LINE
  5
D5
100
AcDbEntity
  8
0
  6
CONTINUOUS
 62
    7
370
   15
100
AcDbLine
 10
-963.5683486824
 20
517.276409391
 11
-1030.5761287575
 21
517.276409391
  0
LINE
  5
D6
100
AcDbEntity
  8
0
  6
CONTINUOUS
 62
    7
370
   15
100
AcDbLine
 10
-963.5683486824
 20
494.9420721565
 11
-963.5683486824
 21
517.276409391
  0
ARC
  5
D7
100
AcDbEntity
  8
0
  6
CONTINUOUS
 62
    7
370
   15
100
AcDbCircle
 10
-1003.5683773013
 20
494.9420999636
 40
40
100
AcDbArc
 50
270
 51
0
  0
LINE
  5
D8
100
AcDbEntity
  8
0
  6
CONTINUOUS
 62
    7
370
   15
100
AcDbLine
 10
-1398.5030392771
 20
454.9421103035
 11
-1381.4368436699
 21
801.9548089539001
  0
LINE
  5
D9
100
AcDbEntity
  8
0
  6
CONTINUOUS
 62
    7
370
   15
100
AcDbLine
 10
-1382.6914618378
 20
936.2792403732
 11
-1382.6914618378
 21
920.3792841469
  0
LINE
  5
DA
100
AcDbEntity
  8
0
  6
CONTINUOUS
 62
    7
370
   15
100
AcDbLine
 10
-1447.6914594536
 20
584.4489367043
 11
-1447.6914594536
 21
454.9421103035
  0
LINE
  5
DB
100
AcDbEntity
  8
0
  6
CONTINUOUS
 62
    7
370
   15
100
AcDbLine
 10
-1435.6363306408
 20
918.3792502914999
 11
-1447.6914594536
 21
918.3792502914999
  0
LINE
  5
DC
100
AcDbEntity
  8
0
  6
CONTINUOUS
 62
    7
370
   15
100
AcDbLine
 10
-1134.4355533486
 20
918.3792502914999
 11
-1159.2363307839
 21
918.3792502914999
  0
LINE
  5
DD
100
AcDbEntity
  8
0
  6
CONTINUOUS
 62
    7
370
   15
100
AcDbLine
 10
-1050.5302737122
 20
1282.3410661255
 11
-1066.1018679505
 21
1286.0186727081
  0
LINE
  5
DE
100
AcDbEntity
  8
0
  6
CONTINUOUS
 62
    7
370
   15
100
AcDbLine
 10
-1075.2961228256
 20
1247.0896871124
 11
-1066.1018679505
 21
1286.0186727081
  0
LINE
  5
DF
100
AcDbEntity
  8
0
  6
CONTINUOUS
 62
    7
370
   15
100
AcDbLine
 10
-1070.5760906105
 20
557.2764308487
 11
-1070.5760906105
 21
584.4489367043
  0
LINE
  5
E0
100
AcDbEntity
  8
0
  6
CONTINUOUS
 62
    7
370
   15
100
AcDbLine
 10
-1206.6914627915
 20
936.2792403732
 11
-1242.6914463406
 21
936.2792403732
  0
LINE
  5
E1
100
AcDbEntity
  8
0
  6
CONTINUOUS
 62
    7
370
   15
100
AcDbLine
 10
-1346.6914633875
 20
920.3792841469
 11
-1346.6914633875
 21
936.2792403732
  0
ARC
  5
E2
100
AcDbEntity
  8
0
  6
CONTINUOUS
 62
    7
370
   15
100
AcDbCircle
 10
-1057.7780762642
 20
1242.9523313418
 40
2.000000000000019
100
AcDbArc
 50
256.7114244426
 51
166.7114244425
  0
LINE
  5
E3
100
AcDbEntity
  8
0
  6
CONTINUOUS
 62
    7
370
   15
100
AcDbLine
 10
-1276.6914556389
 20
936.2792403732
 11
-1312.6914689903
 21
936.2792403732
  0
LINE
  5
E4
100
AcDbEntity
  8
0
  6
CONTINUOUS
 62
    7
370
   15
100
AcDbLine
 10
-1435.6363306408
 20
918.3792502914999
 11
-1435.6363306408
 21
880.9892566238
  0
LINE
  5
E5
100
AcDbEntity
  8
0
  6
CONTINUOUS
 62
    7
370
   15
100
AcDbLine
 10
-1428.6914656525
 20
584.4489367043
 11
-1447.6914594536
 21
584.4489367043
  0
LINE
  5
E6
100
AcDbEntity
  8
0
  6
CONTINUOUS
 62
    7
370
   15
100
AcDbLine
 10
-1059.7245285874
 20
1243.4120805298
 11
-1075.2961228256
 21
1247.0896871124
  0
LINE
  5
E7
100
AcDbEntity
  8
0
  6
CONTINUOUS
 62
    7
370
   15
100
AcDbLine
 10
-1159.2363307839
 20
918.3792502914999
 11
-1159.2363307839
 21
880.9892566238
  0
LINE
  5
E8
100
AcDbEntity
  8
0
  6
CONTINUOUS
 62
    7
370
   15
100
AcDbLine
 10
-963.5683486824
 20
1459.4340951477
 11
-1004.7269652252
 21
1467.5743014847
  0
LINE
  5
E9
100
AcDbEntity
  8
0
  6
CONTINUOUS
 62
    7
370
   15
100
AcDbLine
 10
-1161.236334837
 20
878.9892823731
 11
-1175.436336792
 21
878.9892823731
  0
LINE
  5
EA
100
AcDbEntity
  8
0
  6
CONTINUOUS
 62
    7
370
   15
100
AcDbLine
 10
-1004.7269652252
 20
1467.5743014847
 11
-1048.1241534119
 21
1283.8277251755
  0
LINE
  5
EB
100
AcDbEntity
  8
0
  6
CONTINUOUS
 62
    7
370
   15
100
AcDbLine
 10
-908.2262704735
 20
878.9892823731
 11
-894.0262983208
 21
878.9892823731
  0
LINE
  5
EC
100
AcDbEntity
  8
0
  6
CONTINUOUS
 62
    7
370
   15
100
AcDbLine
 10
-787.2814128762
 20
936.2792403732
 11
-787.2814128762
 21
920.3792841469
  0
LINE
  5
ED
100
AcDbEntity
  8
0
  6
CONTINUOUS
 62
    7
370
   15
100
AcDbLine
 10
-751.2813995247
 20
920.3792841469
 11
-751.2813995247
 21
936.2792403732
  0
LINE
  5
EE
100
AcDbEntity
  8
0
  6
CONTINUOUS
 62
    7
370
   15
100
AcDbLine
 10
-717.2814200287
 20
936.2792403732
 11
-717.2814200287
 21
920.3792841469
  0
LINE
  5
EF
100
AcDbEntity
  8
0
  6
CONTINUOUS
 62
    7
370
   15
100
AcDbLine
 10
-681.2814066773
 20
936.2792403732
 11
-717.2814200287
 21
936.2792403732
  0
LINE
  5
F0
100
AcDbEntity
  8
0
  6
CONTINUOUS
 62
    7
370
   15
100
AcDbLine
 10
-681.2814066773
 20
920.3792841469
 11
-681.2814066773
 21
936.2792403732
  0
LINE
  5
F1
100
AcDbEntity
  8
0
  6
CONTINUOUS
 62
    7
370
   15
100
AcDbLine
 10
-635.8263085251
 20
878.9892823731
 11
-650.0262806777999
 21
878.9892823731
  0
LINE
  5
F2
100
AcDbEntity
  8
0
  6
CONTINUOUS
 62
    7
370
   15
100
AcDbLine
 10
-633.8262746697
 20
918.3792502914999
 11
-633.8262746697
 21
880.9892566238
  0
LINE
  5
F3
100
AcDbEntity
  8
0
  6
CONTINUOUS
 62
    7
370
   15
100
AcDbLine
 10
-534.3144724732
 20
1243.4120805298
 11
-549.8860667114
 21
1247.0896871124
  0
LINE
  5
F4
100
AcDbEntity
  8
0
  6
CONTINUOUS
 62
    7
370
   15
100
AcDbLine
 10
-549.8860667114
 20
1247.0896871124
 11
-540.6918118363
 21
1286.0186727081
  0
LINE
  5
F5
100
AcDbEntity
  8
0
  6
CONTINUOUS
 62
    7
370
   15
100
AcDbLine
 10
-525.120217598
 20
1282.3410661255
 11
-540.6918118363
 21
1286.0186727081
  0
ARC
  5
F6
100
AcDbEntity
  8
0
  6
CONTINUOUS
 62
    7
370
   15
100
AcDbCircle
 10
-806.087151627
 20
799.4987651931
 40
50
100
AcDbArc
 50
90
 51
177.1844433158
  0
LINE
  5
F7
100
AcDbEntity
  8
0
  6
CONTINUOUS
 62
    7
370
   15
100
AcDbLine
 10
-873.0929682617
 20
454.9421103035
 11
-856.0267875557
 21
801.9548089539001
  0
LINE
  5
F8
100
AcDbEntity
  8
0
  6
CONTINUOUS
 62
    7
370
   15
100
AcDbLine
 10
-910.2263043289
 20
918.3792502914999
 11
-910.2263043289
 21
880.9892566238
  0
LINE
  5
F9
100
AcDbEntity
  8
0
  6
CONTINUOUS
 62
    7
370
   15
100
AcDbLine
 10
-821.2813923722
 20
920.3792841469
 11
-821.2813923722
 21
936.2792403732
  0
LINE
  5
FA
100
AcDbEntity
  8
0
  6
CONTINUOUS
 62
    7
370
   15
100
AcDbLine
 10
-652.0262549286
 20
880.9892566238
 11
-652.0262549286
 21
918.3792502914999
  0
LINE
  5
FB
100
AcDbEntity
  8
0
  6
CONTINUOUS
 62
    7
370
   15
100
AcDbLine
 10
-479.316909111
 20
1467.5743014847
 11
-522.7140972977001
 21
1283.8277251755
  0
LINE
  5
FC
100
AcDbEntity
  8
0
  6
CONTINUOUS
 62
    7
370
   15
100
AcDbLine
 10
-438.1583521729
 20
1459.4340951477
 11
-479.316909111
 21
1467.5743014847
  0
LINE
  5
FD
100
AcDbEntity
  8
0
  6
CONTINUOUS
 62
    7
370
   15
100
AcDbLine
 10
-545.166094101
 20
918.3792502914999
 11
-438.1583521729
 21
1459.4340951477
  0
LINE
  5
FE
100
AcDbEntity
  8
0
  6
CONTINUOUS
 62
    7
370
   15
100
AcDbLine
 10
-545.166094101
 20
557.2764308487
 11
-545.166094101
 21
584.4489367043
  0
ARC
  5
FF
100
AcDbEntity
  8
0
  6
CONTINUOUS
 62
    7
370
   15
100
AcDbCircle
 10
-505.1660619394
 20
557.2764245281001
 40
40
100
AcDbArc
 50
180
 51
270
  0
LINE
  5
100
100
AcDbEntity
  8
0
  6
CONTINUOUS
 62
    7
370
   15
100
AcDbLine
 10
-438.1583521729
 20
517.276409391
 11
-505.1660130387
 21
517.276409391
  0
LINE
  5
101
100
AcDbEntity
  8
0
  6
CONTINUOUS
 62
    7
370
   15
100
AcDbLine
 10
-438.1583521729
 20
494.9420721565
 11
-438.1583521729
 21
517.276409391
  0
LINE
  5
102
100
AcDbEntity
  8
0
  6
CONTINUOUS
 62
    7
370
   15
100
AcDbLine
 10
-751.2813995247
 20
936.2792403732
 11
-787.2814128762
 21
936.2792403732
  0
LINE
  5
103
100
AcDbEntity
  8
0
  6
CONTINUOUS
 62
    7
370
   15
100
AcDbLine
 10
-593.4921095733999
 20
454.9421103035
 11
-478.1583140259
 21
454.9421103035
  0
LINE
  5
104
100
AcDbEntity
  8
0
  6
CONTINUOUS
 62
    7
370
   15
100
AcDbLine
 10
-615.5232379799
 20
727.2387774025
 11
-593.4921095733999
 21
454.9421103035
  0
LINE
  5
105
100
AcDbEntity
  8
0
  6
CONTINUOUS
 62
    7
370
   15
100
AcDbLine
 10
-821.2813923722
 20
936.2792403732
 11
-857.2814057236
 21
936.2792403732
  0
LINE
  5
106
100
AcDbEntity
  8
0
  6
CONTINUOUS
 62
    7
370
   15
100
AcDbLine
 10
-806.0871551399
 20
849.4987518822001
 11
-724.0668723946
 21
849.4987518822001
  0
LINE
  5
107
100
AcDbEntity
  8
0
  6
CONTINUOUS
 62
    7
370
   15
100
AcDbLine
 10
-859.2813799744
 20
918.3792502914999
 11
-892.0262644654
 21
918.3792502914999
  0
LINE
  5
108
100
AcDbEntity
  8
0
  6
CONTINUOUS
 62
    7
370
   15
100
AcDbLine
 10
-609.0254972343999
 20
918.3792502914999
 11
-633.8262746697
 21
918.3792502914999
  0
LINE
  5
109
100
AcDbEntity
  8
0
  6
CONTINUOUS
 62
    7
370
   15
100
AcDbLine
 10
-789.2813871269
 20
918.3792502914999
 11
-819.2814181214
 21
918.3792502914999
  0
LINE
  5
10A
100
AcDbEntity
  8
0
  6
CONTINUOUS
 62
    7
370
   15
100
AcDbLine
 10
-719.2813942795
 20
918.3792502914999
 11
-749.2814252739
 21
918.3792502914999
  0
LINE
  5
10B
100
AcDbEntity
  8
0
  6
CONTINUOUS
 62
    7
370
   15
100
AcDbLine
 10
-652.0262549286
 20
918.3792502914999
 11
-679.2814324265
 21
918.3792502914999
  0
LINE
  5
10C
100
AcDbEntity
  8
0
  6
CONTINUOUS
 62
    7
370
   15
100
AcDbLine
 10
-892.0262644654
 20
880.9892566238
 11
-892.0262644654
 21
918.3792502914999
  0
LINE
  5
10D
100
AcDbEntity
  8
0
  6
CONTINUOUS
 62
    7
370
   15
100
AcDbLine
 10
-922.2814033394
 20
918.3792502914999
 11
-922.2814033394
 21
606.9489748512
  0
LINE
  5
10E
100
AcDbEntity
  8
0
  6
CONTINUOUS
 62
    7
370
   15
100
AcDbLine
 10
-545.166094101
 20
606.9489748512
 11
-545.166094101
 21
918.3792502914999
  0
LINE
  5
10F
100
AcDbEntity
  8
0
  6
CONTINUOUS
 62
    7
370
   15
100
AcDbLine
 10
-564.1660282974
 20
584.4489367043
 11
-545.166094101
 21
584.4489367043
  0
LINE
  5
110
100
AcDbEntity
  8
0
  6
CONTINUOUS
 62
    7
370
   15
100
AcDbLine
 10
-564.1660282974
 20
606.9489748512
 11
-545.166094101
 21
606.9489748512
  0
LINE
  5
111
100
AcDbEntity
  8
0
  6
CONTINUOUS
 62
    7
370
   15
100
AcDbLine
 10
-901.2814352875
 20
604.9489409957999
 11
-901.2814352875
 21
586.4489705597
  0
LINE
  5
112
100
AcDbEntity
  8
0
  6
CONTINUOUS
 62
    7
370
   15
100
AcDbLine
 10
-922.2814033394
 20
584.4489367043
 11
-922.2814033394
 21
454.9421103035
  0
LINE
  5
113
100
AcDbEntity
  8
0
  6
CONTINUOUS
 62
    7
370
   15
100
AcDbLine
 10
-922.2814033394
 20
606.9489748512
 11
-903.2814095383
 21
606.9489748512
  0
ARC
  5
114
100
AcDbEntity
  8
0
  6
CONTINUOUS
 62
    7
370
   15
100
AcDbCircle
 10
-523.173798212
 20
1281.8813203018
 40
2.000000000000077
100
AcDbArc
 50
166.7114244426
 51
76.71142444260001
  0
ARC
  5
115
100
AcDbEntity
  8
0
  6
CONTINUOUS
 62
    7
370
   15
100
AcDbCircle
 10
-532.3680256702
 20
1242.9523313418
 40
2.00000000000013
100
AcDbArc
 50
256.7114244426
 51
166.7114244425
  0
ARC
  5
116
100
AcDbEntity
  8
0
  6
CONTINUOUS
 62
    7
370
   15
100
AcDbCircle
 10
-901.2814096072
 20
584.4489459128999
 40
2
100
AcDbArc
 50
180
 51
90
  0
ARC
  5
117
100
AcDbEntity
  8
0
  6
CONTINUOUS
 62
    7
370
   15
100
AcDbCircle
 10
-892.026282335
 20
878.9892618944
 40
2
100
AcDbArc
 50
180
 51
90
  0
ARC
  5
118
100
AcDbEntity
  8
0
  6
CONTINUOUS
 62
    7
370
   15
100
AcDbCircle
 10
-633.826282335
 20
878.9892618944
 40
2
100
AcDbArc
 50
180
 51
90
  0
ARC
  5
119
100
AcDbEntity
  8
0
  6
CONTINUOUS
 62
    7
370
   15
100
AcDbCircle
 10
-652.026282335
 20
878.9892618944
 40
2
100
AcDbArc
 50
90
 51
0
  0
ARC
  5
11A
100
AcDbEntity
  8
0
  6
CONTINUOUS
 62
    7
370
   15
100
AcDbCircle
 10
-821.2814096072
 20
918.3792618944
 40
2
100
AcDbArc
 50
90
 51
0
  0
ARC
  5
11B
100
AcDbEntity
  8
0
  6
CONTINUOUS
 62
    7
370
   15
100
AcDbCircle
 10
-857.2814096072
 20
918.3792618944
 40
2
100
AcDbArc
 50
180
 51
90
  0
ARC
  5
11C
100
AcDbEntity
  8
0
  6
CONTINUOUS
 62
    7
370
   15
100
AcDbCircle
 10
-751.2814096072
 20
918.3792618944
 40
2
100
AcDbArc
 50
90
 51
0
  0
LINE
  5
11D
100
AcDbEntity
  8
0
  6
CONTINUOUS
 62
    7
370
   15
100
AcDbLine
 10
-857.2814057236
 20
936.2792403732
 11
-857.2814057236
 21
920.3792841469
  0
LINE
  5
11E
100
AcDbEntity
  8
0
  6
CONTINUOUS
 62
    7
370
   15
100
AcDbLine
 10
-724.0668723946
 20
849.4987518822001
 11
-615.5232379799
 21
727.2387774025
  0
ARC
  5
11F
100
AcDbEntity
  8
0
  6
CONTINUOUS
 62
    7
370
   15
100
AcDbCircle
 10
-717.2814096072
 20
918.3792618944
 40
2
100
AcDbArc
 50
180
 51
90
  0
LINE
  5
120
100
AcDbEntity
  8
0
  6
CONTINUOUS
 62
    7
370
   15
100
AcDbLine
 10
-910.2263043289
 20
918.3792502914999
 11
-922.2814033394
 21
918.3792502914999
  0
LINE
  5
121
100
AcDbEntity
  8
0
  6
CONTINUOUS
 62
    7
370
   15
100
AcDbLine
 10
-566.1660025482
 20
604.9489409957999
 11
-566.1660025482
 21
586.4489705597
  0
ARC
  5
122
100
AcDbEntity
  8
0
  6
CONTINUOUS
 62
    7
370
   15
100
AcDbCircle
 10
-478.1583267073
 20
494.9420999636
 40
40.00000000000006
100
AcDbArc
 50
270
 51
0
  0
ARC
  5
123
100
AcDbEntity
  8
0
  6
CONTINUOUS
 62
    7
370
   15
100
AcDbCircle
 10
-901.2814096072
 20
606.9489459128999
 40
2
100
AcDbArc
 50
270
 51
180
  0
ARC
  5
124
100
AcDbEntity
  8
0
  6
CONTINUOUS
 62
    7
370
   15
100
AcDbCircle
 10
-566.1660619394
 20
584.4489459128999
 40
2
100
AcDbArc
 50
90
 51
0
  0
ARC
  5
125
100
AcDbEntity
  8
0
  6
CONTINUOUS
 62
    7
370
   15
100
AcDbCircle
 10
-566.1660619394
 20
606.9489459128999
 40
2
100
AcDbArc
 50
0
 51
270
  0
ARC
  5
126
100
AcDbEntity
  8
0
  6
CONTINUOUS
 62
    7
370
   15
100
AcDbCircle
 10
-910.226282335
 20
878.9892618944
 40
2
100
AcDbArc
 50
90
 51
0
  0
LINE
  5
127
100
AcDbEntity
  8
0
  6
CONTINUOUS
 62
    7
370
   15
100
AcDbLine
 10
-922.2814033394
 20
454.9421103035
 11
-873.0929682617
 21
454.9421103035
  0
LINE
  5
128
100
AcDbEntity
  8
0
  6
CONTINUOUS
 62
    7
370
   15
100
AcDbLine
 10
-903.2814095383
 20
584.4489367043
 11
-922.2814033394
 21
584.4489367043
  0
LINE
  5
129
100
AcDbEntity
  8
0
  6
CONTINUOUS
 62
    7
370
   15
100
AcDbLine
 10
-532.8276942139
 20
1241.0058410202
 11
-609.0254972343999
 21
918.3792502914999
  0
ARC
  5
12A
100
AcDbEntity
  8
0
  6
CONTINUOUS
 62
    7
370
   15
100
AcDbCircle
 10
-787.2814096072
 20
918.3792618944
 40
2
100
AcDbArc
 50
180
 51
90
  0
ARC
  5
12B
100
AcDbEntity
  8
0
  6
CONTINUOUS
 62
    7
370
   15
100
AcDbCircle
 10
-681.2814096072
 20
918.3792618944
 40
2
100
AcDbArc
 50
90
 51
0
  0
LINE
  5
12C
100
AcDbEntity
  8
0
  6
CONTINUOUS
 62
    7
370
   15
100
AcDbLine
 10
-1320.4154560929
 20
1012.7576024567
 11
-1320.4154560929
 21
1369.5238263641
  0
LINE
  5
12D
100
AcDbEntity
  8
0
  6
CONTINUOUS
 62
    7
370
   15
100
AcDbLine
 10
-1368.2328055268
 20
1016.9410140549
 11
-1320.4154560929
 21
1012.7576024567
  0
ARC
  5
12E
100
AcDbEntity
  8
0
  6
CONTINUOUS
 62
    7
370
   15
100
AcDbCircle
 10
-1370.2251883778
 20
1017.1153633781
 40
2.000000000000246
100
AcDbArc
 50
355
 51
265
  0
LINE
  5
12F
100
AcDbEntity
  8
0
  6
CONTINUOUS
 62
    7
370
   15
100
AcDbLine
 10
-1371.6371099119
 20
1000.9769828354
 11
-1370.399493969
 21
1015.1229531799
  0
ARC
  5
130
100
AcDbEntity
  8
0
  6
CONTINUOUS
 62
    7
370
   15
100
AcDbCircle
 10
-1371.8114228958
 20
998.9846198728
 40
2.000000000000114
100
AcDbArc
 50
85
 51
355
  0
LINE
  5
131
100
AcDbEntity
  8
0
  6
CONTINUOUS
 62
    7
370
   15
100
AcDbLine
 10
-1336.9446138506
 20
995.9341914688
 11
-1369.8190341358
 21
998.8103539978
  0
LINE
  5
132
100
AcDbEntity
  8
0
  6
CONTINUOUS
 62
    7
370
   15
100
AcDbLine
 10
-1339.2716685896
 20
969.3357975517
 11
-1336.9446138506
 21
995.9341914688
  0
LINE
  5
133
100
AcDbEntity
  8
0
  6
CONTINUOUS
 62
    7
370
   15
100
AcDbLine
 10
-1413.3796433573
 20
975.8194119965
 11
-1339.2716685896
 21
969.3357975517
  0
LINE
  5
134
100
AcDbEntity
  8
0
  6
CONTINUOUS
 62
    7
370
   15
100
AcDbLine
 10
-1402.4154583578
 20
1101.1406810318
 11
-1413.3796433573
 21
975.8194119965
  0
LINE
  5
135
100
AcDbEntity
  8
0
  6
CONTINUOUS
 62
    7
370
   15
100
AcDbLine
 10
-1402.4154583578
 20
1182.040634874
 11
-1402.4154583578
 21
1101.1406810318
  0
LINE
  5
136
100
AcDbEntity
  8
0
  6
CONTINUOUS
 62
    7
370
   15
100
AcDbLine
 10
-1402.4154583578
 20
1182.040634874
 11
-1370.4154531126
 21
1182.040634874
  0
ARC
  5
137
100
AcDbEntity
  8
0
  6
CONTINUOUS
 62
    7
370
   15
100
AcDbCircle
 10
-1368.4154534732
 20
1182.0406715071
 40
1.999999999999773
100
AcDbArc
 50
180
 51
90
  0
LINE
  5
138
100
AcDbEntity
  8
0
  6
CONTINUOUS
 62
    7
370
   15
100
AcDbLine
 10
-1368.4154490595
 20
1184.0407283341
 11
-1368.4154490595
 21
1198.2407004868
  0
ARC
  5
139
100
AcDbEntity
  8
0
  6
CONTINUOUS
 62
    7
370
   15
100
AcDbCircle
 10
-1368.4154534732
 20
1200.2406715071
 40
1.999999999999773
100
AcDbArc
 50
270
 51
180
  0
LINE
  5
13A
100
AcDbEntity
  8
0
  6
CONTINUOUS
 62
    7
370
   15
100
AcDbLine
 10
-1370.4154531126
 20
1200.2406747376
 11
-1402.4154583578
 21
1200.2406747376
  0
LINE
  5
13B
100
AcDbEntity
  8
0
  6
CONTINUOUS
 62
    7
370
   15
100
AcDbLine
 10
-1402.4154583578
 20
1281.1406285797
 11
-1402.4154583578
 21
1200.2406747376
  0
LINE
  5
13C
100
AcDbEntity
  8
0
  6
CONTINUOUS
 62
    7
370
   15
100
AcDbLine
 10
-1413.3796433573
 20
1406.4620168243
 11
-1402.4154583578
 21
1281.1406285797
  0
LINE
  5
13D
100
AcDbEntity
  8
0
  6
CONTINUOUS
 62
    7
370
   15
100
AcDbLine
 10
-1339.2716685896
 20
1412.9455716644
 11
-1413.3796433573
 21
1406.4620168243
  0
LINE
  5
13E
100
AcDbEntity
  8
0
  6
CONTINUOUS
 62
    7
370
   15
100
AcDbLine
 10
-1336.9446138506
 20
1386.3471181427
 11
-1339.2716685896
 21
1412.9455716644
  0
LINE
  5
13F
100
AcDbEntity
  8
0
  6
CONTINUOUS
 62
    7
370
   15
100
AcDbLine
 10
-1369.8190341358
 20
1383.471074823
 11
-1336.9446138506
 21
1386.3471181427
  0
ARC
  5
140
100
AcDbEntity
  8
0
  6
CONTINUOUS
 62
    7
370
   15
100
AcDbCircle
 10
-1371.8114228958
 20
1383.2967231413
 40
1.999999999999887
100
AcDbArc
 50
5
 51
275
  0
LINE
  5
141
100
AcDbEntity
  8
0
  6
CONTINUOUS
 62
    7
370
   15
100
AcDbLine
 10
-1370.399493969
 20
1367.1583564316
 11
-1371.6371099119
 21
1381.3043267761
  0
ARC
  5
142
100
AcDbEntity
  8
0
  6
CONTINUOUS
 62
    7
370
   15
100
AcDbCircle
 10
-1370.2251883778
 20
1365.1659796361
 40
1.999999999999927
100
AcDbArc
 50
95
 51
5
  0
LINE
  5
143
100
AcDbEntity
  8
0
  6
CONTINUOUS
 62
    7
370
   15
100
AcDbLine
 10
-1320.4154560929
 20
1369.5238263641
 11
-1368.2328055268
 21
1365.3402955566
  0
LINE
  5
144
100
AcDbEntity
  8
0
  6
CONTINUOUS
 62
    7
370
   15
100
AcDbLine
 10
-1433.2340101366
 20
1012.7576024567
 11
-1433.2340101366
 21
1369.5238263641
  0
LINE
  5
145
100
AcDbEntity
  8
0
  6
CONTINUOUS
 62
    7
370
   15
100
AcDbLine
 10
-1481.0513595705
 20
1016.9410140549
 11
-1433.2340101366
 21
1012.7576024567
  0
ARC
  5
146
100
AcDbEntity
  8
0
  6
CONTINUOUS
 62
    7
370
   15
100
AcDbCircle
 10
-1483.0437467318
 20
1017.1153633781
 40
2.000000000000266
100
AcDbArc
 50
355
 51
265
  0
LINE
  5
147
100
AcDbEntity
  8
0
  6
CONTINUOUS
 62
    7
370
   15
100
AcDbLine
 10
-1484.4556714063
 20
1000.9769828354
 11
-1483.2180554633
 21
1015.1229531799
  0
ARC
  5
148
100
AcDbEntity
  8
0
  6
CONTINUOUS
 62
    7
370
   15
100
AcDbCircle
 10
-1484.6299812498
 20
998.9846198728
 40
2.000000000000114
100
AcDbArc
 50
85
 51
355
  0
LINE
  5
149
100
AcDbEntity
  8
0
  6
CONTINUOUS
 62
    7
370
   15
100
AcDbLine
 10
-1449.7631678944
 20
995.9341914688
 11
-1482.6375881796
 21
998.8103539978
  0
LINE
  5
14A
100
AcDbEntity
  8
0
  6
CONTINUOUS
 62
    7
370
   15
100
AcDbLine
 10
-1452.0902226334
 20
969.3357975517
 11
-1449.7631678944
 21
995.9341914688
  0
LINE
  5
14B
100
AcDbEntity
  8
0
  6
CONTINUOUS
 62
    7
370
   15
100
AcDbLine
 10
-1526.1982048517
 20
975.8194119965
 11
-1452.0902226334
 21
969.3357975517
  0
LINE
  5
14C
100
AcDbEntity
  8
0
  6
CONTINUOUS
 62
    7
370
   15
100
AcDbLine
 10
-1515.2340124016
 20
1101.1406810318
 11
-1526.1982048517
 21
975.8194119965
  0
LINE
  5
14D
100
AcDbEntity
  8
0
  6
CONTINUOUS
 62
    7
370
   15
100
AcDbLine
 10
-1515.2340124016
 20
1182.040634874
 11
-1515.2340124016
 21
1101.1406810318
  0
ARC
  5
14E
100
AcDbEntity
  8
0
  6
CONTINUOUS
 62
    7
370
   15
100
AcDbCircle
 10
-1481.2340118272
 20
1182.0406715071
 40
2
100
AcDbArc
 50
180
 51
90
  0
LINE
  5
14F
100
AcDbEntity
  8
0
  6
CONTINUOUS
 62
    7
370
   15
100
AcDbLine
 10
-1481.2340105539
 20
1184.0407283341
 11
-1481.2340105539
 21
1198.2407004868
  0
ARC
  5
150
100
AcDbEntity
  8
0
  6
CONTINUOUS
 62
    7
370
   15
100
AcDbCircle
 10
-1481.2340118272
 20
1200.2406715071
 40
2
100
AcDbArc
 50
270
 51
180
  0
LINE
  5
151
100
AcDbEntity
  8
0
  6
CONTINUOUS
 62
    7
370
   15
100
AcDbLine
 10
-1483.234014607
 20
1200.2406747376
 11
-1515.2340124016
 21
1200.2406747376
  0
LINE
  5
152
100
AcDbEntity
  8
0
  6
CONTINUOUS
 62
    7
370
   15
100
AcDbLine
 10
-1515.2340124016
 20
1281.1406285797
 11
-1515.2340124016
 21
1200.2406747376
  0
LINE
  5
153
100
AcDbEntity
  8
0
  6
CONTINUOUS
 62
    7
370
   15
100
AcDbLine
 10
-1526.1982048517
 20
1406.4620168243
 11
-1515.2340124016
 21
1281.1406285797
  0
LINE
  5
154
100
AcDbEntity
  8
0
  6
CONTINUOUS
 62
    7
370
   15
100
AcDbLine
 10
-1452.0902226334
 20
1412.9455716644
 11
-1526.1982048517
 21
1406.4620168243
  0
LINE
  5
155
100
AcDbEntity
  8
0
  6
CONTINUOUS
 62
    7
370
   15
100
AcDbLine
 10
-1449.7631678944
 20
1386.3471181427
 11
-1452.0902226334
 21
1412.9455716644
  0
LINE
  5
156
100
AcDbEntity
  8
0
  6
CONTINUOUS
 62
    7
370
   15
100
AcDbLine
 10
-1482.6375881796
 20
1383.471074823
 11
-1449.7631678944
 21
1386.3471181427
  0
ARC
  5
157
100
AcDbEntity
  8
0
  6
CONTINUOUS
 62
    7
370
   15
100
AcDbCircle
 10
-1484.6299812498
 20
1383.2967231413
 40
2.000000000000153
100
AcDbArc
 50
5
 51
275
  0
LINE
  5
158
100
AcDbEntity
  8
0
  6
CONTINUOUS
 62
    7
370
   15
100
AcDbLine
 10
-1483.2180554633
 20
1367.1583564316
 11
-1484.4556714063
 21
1381.3043267761
  0
ARC
  5
159
100
AcDbEntity
  8
0
  6
CONTINUOUS
 62
    7
370
   15
100
AcDbCircle
 10
-1483.0437467318
 20
1365.1659796361
 40
1.999999999999927
100
AcDbArc
 50
95
 51
5
  0
LINE
  5
15A
100
AcDbEntity
  8
0
  6
CONTINUOUS
 62
    7
370
   15
100
AcDbLine
 10
-1433.2340101366
 20
1369.5238263641
 11
-1481.0513595705
 21
1365.3402955566
  0
LINE
  5
15B
100
AcDbEntity
  8
0
  6
CONTINUOUS
 62
    7
370
   15
100
AcDbLine
 10
-1515.2340124016
 20
1182.040634874
 11
-1483.234014607
 21
1182.040634874
  0
LINE
  5
15C
100
AcDbEntity
  8
0
  6
CONTINUOUS
 62
    7
370
   15
100
AcDbLine
 10
-1295.7630346184
 20
1044.4808633362
 11
-1279.9630353813
 21
1044.4808633362
  0
LINE
  5
15D
100
AcDbEntity
  8
0
  6
CONTINUOUS
 62
    7
370
   15
100
AcDbLine
 10
-1213.9630208378
 20
1015.0256783997
 11
-1213.9630208378
 21
1255.0256879364
  0
LINE
  5
15E
100
AcDbEntity
  8
0
  6
CONTINUOUS
 62
    7
370
   15
100
AcDbLine
 10
-1243.9630220299
 20
998.8257319962
 11
-1243.9630220299
 21
1013.0257041489
  0
LINE
  5
15F
100
AcDbEntity
  8
0
  6
CONTINUOUS
 62
    7
370
   15
100
AcDbLine
 10
-1241.9630477791
 20
1273.2257278
 11
-1213.76465658
 21
1273.2257278
  0
LINE
  5
160
100
AcDbEntity
  8
0
  6
CONTINUOUS
 62
    7
370
   15
100
AcDbLine
 10
-1213.76465658
 20
1285.4808003937
 11
-1277.9630313282
 21
1285.4808003937
  0
LINE
  5
161
100
AcDbEntity
  8
0
  6
CONTINUOUS
 62
    7
370
   15
100
AcDbLine
 10
-1277.9630313282
 20
1285.4808003937
 11
-1277.9630313282
 21
1222.4808366333
  0
LINE
  5
162
100
AcDbEntity
  8
0
  6
CONTINUOUS
 62
    7
370
   15
100
AcDbLine
 10
-1295.7630346184
 20
1044.4808633362
 11
-1295.7630346184
 21
1080.4808766876
  0
LINE
  5
163
100
AcDbEntity
  8
0
  6
CONTINUOUS
 62
    7
370
   15
100
AcDbLine
 10
-1295.7630346184
 20
1080.4808766876
 11
-1279.9630353813
 21
1080.4808766876
  0
LINE
  5
164
100
AcDbEntity
  8
0
  6
CONTINUOUS
 62
    7
370
   15
100
AcDbLine
 10
-1295.7630346184
 20
1150.4808099304
 11
-1279.9630353813
 21
1150.4808099304
  0
LINE
  5
165
100
AcDbEntity
  8
0
  6
CONTINUOUS
 62
    7
370
   15
100
AcDbLine
 10
-1295.7630346184
 20
1184.4808490311
 11
-1295.7630346184
 21
1220.4808623825
  0
LINE
  5
166
100
AcDbEntity
  8
0
  6
CONTINUOUS
 62
    7
370
   15
100
AcDbLine
 10
-1295.7630346184
 20
1220.4808623825
 11
-1279.9630353813
 21
1220.4808623825
  0
LINE
  5
167
100
AcDbEntity
  8
0
  6
CONTINUOUS
 62
    7
370
   15
100
AcDbLine
 10
-1295.7630346184
 20
1184.4808490311
 11
-1279.9630353813
 21
1184.4808490311
  0
LINE
  5
168
100
AcDbEntity
  8
0
  6
CONTINUOUS
 62
    7
370
   15
100
AcDbLine
 10
-1243.9630220299
 20
1257.0256621872
 11
-1243.9630220299
 21
1271.2257535492
  0
LINE
  5
169
100
AcDbEntity
  8
0
  6
CONTINUOUS
 62
    7
370
   15
100
AcDbLine
 10
-1213.8455102806
 20
984.5705659424
 11
-1213.8455102806
 21
996.8257577454
  0
ARC
  5
16A
100
AcDbEntity
  8
0
  6
CONTINUOUS
 62
    7
370
   15
100
AcDbCircle
 10
-1277.963034392
 20
1184.4808437936
 40
1.999999999999773
100
AcDbArc
 50
270
 51
180
  0
ARC
  5
16B
100
AcDbEntity
  8
0
  6
CONTINUOUS
 62
    7
370
   15
100
AcDbCircle
 10
-1277.963034392
 20
1150.4808437936
 40
1.999999999999773
100
AcDbArc
 50
180
 51
90
  0
LINE
  5
16C
100
AcDbEntity
  8
0
  6
CONTINUOUS
 62
    7
370
   15
100
AcDbLine
 10
-1277.9630313282
 20
1042.4808890854
 11
-1277.9630313282
 21
984.5705659424
  0
LINE
  5
16D
100
AcDbEntity
  8
0
  6
CONTINUOUS
 62
    7
370
   15
100
AcDbLine
 10
-1213.9630208378
 20
1255.0256879364
 11
-1241.9630477791
 21
1255.0256879364
  0
LINE
  5
16E
100
AcDbEntity
  8
0
  6
CONTINUOUS
 62
    7
370
   15
100
AcDbLine
 10
-1295.7630346184
 20
1114.480796579
 11
-1295.7630346184
 21
1150.4808099304
  0
ARC
  5
16F
100
AcDbEntity
  8
0
  6
CONTINUOUS
 62
    7
370
   15
100
AcDbCircle
 10
-1243.963034392
 20
996.8257165214
 40
2
100
AcDbArc
 50
90
 51
0
  0
LINE
  5
170
100
AcDbEntity
  8
0
  6
CONTINUOUS
 62
    7
370
   15
100
AcDbLine
 10
-1295.7630346184
 20
1114.480796579
 11
-1279.9630353813
 21
1114.480796579
  0
LINE
  5
171
100
AcDbEntity
  8
0
  6
CONTINUOUS
 62
    7
370
   15
100
AcDbLine
 10
-1277.9630313282
 20
984.5705659424
 11
-1213.8455102806
 21
984.5705659424
  0
ARC
  5
172
100
AcDbEntity
  8
0
  6
CONTINUOUS
 62
    7
370
   15
100
AcDbCircle
 10
-1277.963034392
 20
1114.4808437936
 40
2.000000000000227
100
AcDbArc
 50
270
 51
180
  0
LINE
  5
173
100
AcDbEntity
  8
0
  6
CONTINUOUS
 62
    7
370
   15
100
AcDbLine
 10
-1213.76465658
 20
1273.2257278
 11
-1213.76465658
 21
1285.4808003937
  0
ARC
  5
174
100
AcDbEntity
  8
0
  6
CONTINUOUS
 62
    7
370
   15
100
AcDbCircle
 10
-1277.963034392
 20
1044.4808437936
 40
1.999999999999773
100
AcDbArc
 50
270
 51
180
  0
LINE
  5
175
100
AcDbEntity
  8
0
  6
CONTINUOUS
 62
    7
370
   15
100
AcDbLine
 10
-1277.9630313282
 20
1182.4808747803
 11
-1277.9630313282
 21
1152.4809033905
  0
LINE
  5
176
100
AcDbEntity
  8
0
  6
CONTINUOUS
 62
    7
370
   15
100
AcDbLine
 10
-1277.9630313282
 20
1112.4808223282
 11
-1277.9630313282
 21
1082.4808509384
  0
ARC
  5
177
100
AcDbEntity
  8
0
  6
CONTINUOUS
 62
    7
370
   15
100
AcDbCircle
 10
-1277.963034392
 20
1220.4808437936
 40
2.000000000000227
100
AcDbArc
 50
180
 51
90
  0
LINE
  5
178
100
AcDbEntity
  8
0
  6
CONTINUOUS
 62
    7
370
   15
100
AcDbLine
 10
-1213.8455102806
 20
996.8257577454
 11
-1241.9630477791
 21
996.8257577454
  0
LINE
  5
179
100
AcDbEntity
  8
0
  6
CONTINUOUS
 62
    7
370
   15
100
AcDbLine
 10
-1241.9630477791
 20
1015.0256783997
 11
-1213.9630208378
 21
1015.0256783997
  0
ARC
  5
17A
100
AcDbEntity
  8
0
  6
CONTINUOUS
 62
    7
370
   15
100
AcDbCircle
 10
-1243.963034392
 20
1255.0257165214
 40
1.999999999999773
100
AcDbArc
 50
90
 51
0
  0
ARC
  5
17B
100
AcDbEntity
  8
0
  6
CONTINUOUS
 62
    7
370
   15
100
AcDbCircle
 10
-1277.963034392
 20
1080.4808437936
 40
2.000000000000227
100
AcDbArc
 50
180
 51
90
  0
ARC
  5
17C
100
AcDbEntity
  8
0
  6
CONTINUOUS
 62
    7
370
   15
100
AcDbCircle
 10
-1243.963034392
 20
1015.0257165214
 40
1.999999999999773
100
AcDbArc
 50
0
 51
270
  0
ARC
  5
17D
100
AcDbEntity
  8
0
  6
CONTINUOUS
 62
    7
370
   15
100
AcDbCircle
 10
-1243.963034392
 20
1273.2257165214
 40
1.999999999999773
100
AcDbArc
 50
0
 51
270
  0
LINE
  5
17E
100
AcDbEntity
  8
0
  6
CONTINUOUS
 62
    7
370
   15
100
AcDbLine
 10
-920.8398650055
 20
1429.217162851
 11
-959.9153588181
 21
1263.7689740692
  0
LINE
  5
17F
100
AcDbEntity
  8
0
  6
CONTINUOUS
 62
    7
370
   15
100
AcDbLine
 10
-620.1134512787
 20
1358.1917912994
 11
-920.8398650055
 21
1429.217162851
  0
LINE
  5
180
100
AcDbEntity
  8
0
  6
CONTINUOUS
 62
    7
370
   15
100
AcDbLine
 10
-659.1888854866
 20
1192.7436025177
 11
-620.1134512787
 21
1358.1917912994
  0
LINE
  5
181
100
AcDbEntity
  8
0
  6
CONTINUOUS
 62
    7
370
   15
100
AcDbLine
 10
-959.9153588181
 20
1263.7689740692
 11
-659.1888854866
 21
1192.7436025177
  0
LINE
  5
182
100
AcDbEntity
  8
0
  6
CONTINUOUS
 62
    7
370
   15
100
AcDbLine
 10
-877.4605582123
 20
1322.4884898697
 11
-845.8307574158
 21
1315.01823974
  0
ARC
  5
183
100
AcDbEntity
  8
0
  6
CONTINUOUS
 62
    7
370
   15
100
AcDbCircle
 10
-843.8843267794
 20
1314.5585045236
 40
2.00000000000024
100
AcDbArc
 50
166.7114244425
 51
76.7114244425
  0
LINE
  5
184
100
AcDbEntity
  8
0
  6
CONTINUOUS
 62
    7
370
   15
100
AcDbLine
 10
-843.4246371155
 20
1316.50489879
 11
-840.2525971298001
 21
1329.9354941879
  0
ARC
  5
185
100
AcDbEntity
  8
0
  6
CONTINUOUS
 62
    7
370
   15
100
AcDbCircle
 10
-839.7928955605
 20
1331.8819046108
 40
2.000000000000019
100
AcDbArc
 50
256.7114244425
 51
166.7114244426
  0
LINE
  5
186
100
AcDbEntity
  8
0
  6
CONTINUOUS
 62
    7
370
   15
100
AcDbLine
 10
-841.7393157845
 20
1332.3416144882
 11
-873.3691761856001
 21
1339.8119838272
  0
ARC
  5
187
100
AcDbEntity
  8
0
  6
CONTINUOUS
 62
    7
370
   15
100
AcDbCircle
 10
-875.3155979865001
 20
1340.2716371664
 40
1.999999999999967
100
AcDbArc
 50
346.7114244426
 51
256.7114244425
  0
LINE
  5
188
100
AcDbEntity
  8
0
  6
CONTINUOUS
 62
    7
370
   15
100
AcDbLine
 10
-875.7752964859
 20
1338.3252055679
 11
-878.9473364716
 21
1324.8947293793
  0
ARC
  5
189
100
AcDbEntity
  8
0
  6
CONTINUOUS
 62
    7
370
   15
100
AcDbCircle
 10
-879.4070292054
 20
1322.9482370792
 40
2.00000000000013
100
AcDbArc
 50
76.7114244425
 51
346.7114244425
  0
LINE
  5
18A
100
AcDbEntity
  8
0
  6
CONTINUOUS
 62
    7
370
   15
100
AcDbLine
 10
-741.2091086273
 20
1290.3087766205
 11
-709.5793078308
 21
1282.8384072815
  0
ARC
  5
18B
100
AcDbEntity
  8
0
  6
CONTINUOUS
 62
    7
370
   15
100
AcDbCircle
 10
-707.6328654194
 20
1282.37870842
 40
1.999999999999993
100
AcDbArc
 50
166.7114244425
 51
76.7114244425
  0
LINE
  5
18C
100
AcDbEntity
  8
0
  6
CONTINUOUS
 62
    7
370
   15
100
AcDbLine
 10
-707.1731279259
 20
1284.3251855408
 11
-704.0011475449
 21
1297.7556617294
  0
ARC
  5
18D
100
AcDbEntity
  8
0
  6
CONTINUOUS
 62
    7
370
   15
100
AcDbCircle
 10
-703.5414342005
 20
1299.7021085072
 40
2.000000000000214
100
AcDbArc
 50
256.7114244426
 51
166.7114244426
  0
LINE
  5
18E
100
AcDbEntity
  8
0
  6
CONTINUOUS
 62
    7
370
   15
100
AcDbLine
 10
-705.4878661995
 20
1300.1617820297
 11
-737.117666996
 21
1307.6321513687
  0
ARC
  5
18F
100
AcDbEntity
  8
0
  6
CONTINUOUS
 62
    7
370
   15
100
AcDbCircle
 10
-739.0641366265
 20
1308.0918410628
 40
1.999999999999993
100
AcDbArc
 50
346.7114244426
 51
256.7114244426
  0
LINE
  5
190
100
AcDbEntity
  8
0
  6
CONTINUOUS
 62
    7
370
   15
100
AcDbLine
 10
-739.523846901
 20
1306.1453731094
 11
-742.695827282
 21
1292.7148969208
  0
ARC
  5
191
100
AcDbEntity
  8
0
  6
CONTINUOUS
 62
    7
370
   15
100
AcDbCircle
 10
-743.1555678454
 20
1290.7684409756
 40
1.999999999999993
100
AcDbArc
 50
76.7114244425
 51
346.7114244426
  0
LINE
  5
192
100
AcDbEntity
  8
0
  6
CONTINUOUS
 62
    7
370
   15
100
AcDbLine
 10
-773.613590992
 20
1316.251698259
 11
-805.2433917885
 21
1323.722067598
  0
ARC
  5
193
100
AcDbEntity
  8
0
  6
CONTINUOUS
 62
    7
370
   15
100
AcDbCircle
 10
-807.1898673065
 20
1324.1817391146
 40
1.999999999999915
100
AcDbArc
 50
346.7114244426
 51
256.7114244425
  0
LINE
  5
194
100
AcDbEntity
  8
0
  6
CONTINUOUS
 62
    7
370
   15
100
AcDbLine
 10
-807.6495716934
 20
1322.2352893387
 11
-810.8216116791
 21
1308.80481315
  0
ARC
  5
195
100
AcDbEntity
  8
0
  6
CONTINUOUS
 62
    7
370
   15
100
AcDbCircle
 10
-811.2812985254
 20
1306.8583390274
 40
2.000000000000019
100
AcDbArc
 50
76.7114244425
 51
346.7114244425
  0
LINE
  5
196
100
AcDbEntity
  8
0
  6
CONTINUOUS
 62
    7
370
   15
100
AcDbLine
 10
-809.3348334198
 20
1306.3985736404
 11
-777.7050326233
 21
1298.9283235107
  0
ARC
  5
197
100
AcDbEntity
  8
0
  6
CONTINUOUS
 62
    7
370
   15
100
AcDbCircle
 10
-775.7585960994001
 20
1298.4686064718
 40
1.999999999999993
100
AcDbArc
 50
166.7114244425
 51
76.7114244425
  0
LINE
  5
198
100
AcDbEntity
  8
0
  6
CONTINUOUS
 62
    7
370
   15
100
AcDbLine
 10
-775.298912323
 20
1300.41510177
 11
-772.1268723374
 21
1313.8455779587
  0
ARC
  5
199
100
AcDbEntity
  8
0
  6
CONTINUOUS
 62
    7
370
   15
100
AcDbCircle
 10
-771.6671648805
 20
1315.792006559
 40
2.000000000000077
100
AcDbArc
 50
256.7114244425
 51
166.7114244426
  0
ARC
  5
19A
100
AcDbEntity
  8
0
  6
CONTINUOUS
 62
    7
370
   15
100
AcDbCircle
 10
-886.6767403067
 20
1120.3208263822
 40
2.000000000000214
100
AcDbArc
 50
256.7114244426
 51
166.7114244426
  0
LINE
  5
19B
100
AcDbEntity
  8
0
  6
CONTINUOUS
 62
    7
370
   15
100
AcDbLine
 10
-888.6231968764999
 20
1120.7805306946
 11
-920.2529976731
 21
1128.2509000336
  0
ARC
  5
19C
100
AcDbEntity
  8
0
  6
CONTINUOUS
 62
    7
370
   15
100
AcDbCircle
 10
-922.1994427327
 20
1128.7105589378
 40
1.999999999999915
100
AcDbArc
 50
346.7114244426
 51
256.7114244425
  0
LINE
  5
19D
100
AcDbEntity
  8
0
  6
CONTINUOUS
 62
    7
370
   15
100
AcDbLine
 10
-922.659177578
 20
1126.7641217743
 11
-925.8311579590001
 21
1113.3336455856
  0
ARC
  5
19E
100
AcDbEntity
  8
0
  6
CONTINUOUS
 62
    7
370
   15
100
AcDbCircle
 10
-926.2908739516
 20
1111.3871588506
 40
2.000000000000214
100
AcDbArc
 50
76.71142444260001
 51
346.7114244426
  0
LINE
  5
19F
100
AcDbEntity
  8
0
  6
CONTINUOUS
 62
    7
370
   15
100
AcDbLine
 10
-924.3444393044
 20
1110.9274060761
 11
-892.7146385079
 21
1103.4571559464
  0
ARC
  5
1A0
100
AcDbEntity
  8
0
  6
CONTINUOUS
 62
    7
370
   15
100
AcDbCircle
 10
-890.7681715256
 20
1102.997426295
 40
2.000000000000025
100
AcDbArc
 50
166.7114244426
 51
76.7114244425
  0
LINE
  5
1A1
100
AcDbEntity
  8
0
  6
CONTINUOUS
 62
    7
370
   15
100
AcDbLine
 10
-890.3084586029
 20
1104.9439342056
 11
-887.1364782219
 21
1118.3744103943
  0
LINE
  5
1A2
100
AcDbEntity
  8
0
  6
CONTINUOUS
 62
    7
370
   15
100
AcDbLine
 10
-1009.7188542252
 20
1052.8975160156
 11
-970.6434200172999
 21
1218.3457047974
  0
LINE
  5
1A3
100
AcDbEntity
  8
0
  6
CONTINUOUS
 62
    7
370
   15
100
AcDbLine
 10
-970.6434200172999
 20
1218.3457047974
 11
-669.9169466858
 21
1147.3203332459
  0
LINE
  5
1A4
100
AcDbEntity
  8
0
  6
CONTINUOUS
 62
    7
370
   15
100
AcDbLine
 10
-669.9169466858
 20
1147.3203332459
 11
-708.9924404984
 21
981.8720252548
  0
LINE
  5
1A5
100
AcDbEntity
  8
0
  6
CONTINUOUS
 62
    7
370
   15
100
AcDbLine
 10
-708.9924404984
 20
981.8720252548
 11
-1009.7188542252
 21
1052.8975160156
  0
ARC
  5
1A6
100
AcDbEntity
  8
0
  6
CONTINUOUS
 62
    7
370
   15
100
AcDbCircle
 10
-750.4252789467999
 20
1088.1410302787
 40
2.000000000000071
100
AcDbArc
 50
256.7114244426
 51
166.7114244425
  0
LINE
  5
1A7
100
AcDbEntity
  8
0
  6
CONTINUOUS
 62
    7
370
   15
100
AcDbLine
 10
-752.3717472915999
 20
1088.6006982361
 11
-784.0015480881
 21
1096.0710675751
  0
ARC
  5
1A8
100
AcDbEntity
  8
0
  6
CONTINUOUS
 62
    7
370
   15
100
AcDbCircle
 10
-785.9479813728
 20
1096.5307628342
 40
2.00000000000024
100
AcDbArc
 50
346.7114244425
 51
256.7114244425
  0
LINE
  5
1A9
100
AcDbEntity
  8
0
  6
CONTINUOUS
 62
    7
370
   15
100
AcDbLine
 10
-786.4076683884
 20
1094.5842893158
 11
-789.579708374
 21
1081.1538131271
  0
ARC
  5
1AA
100
AcDbEntity
  8
0
  6
CONTINUOUS
 62
    7
370
   15
100
AcDbCircle
 10
-790.0394125916
 20
1079.207362747
 40
2.000000000000019
100
AcDbArc
 50
76.7114244425
 51
346.7114244426
  0
LINE
  5
1AB
100
AcDbEntity
  8
0
  6
CONTINUOUS
 62
    7
370
   15
100
AcDbLine
 10
-788.0929897194
 20
1078.7476928269
 11
-756.4631889229
 21
1071.2773234879
  0
ARC
  5
1AC
100
AcDbEntity
  8
0
  6
CONTINUOUS
 62
    7
370
   15
100
AcDbCircle
 10
-754.5167101656
 20
1070.8176301915
 40
2.000000000000188
100
AcDbArc
 50
166.7114244425
 51
76.71142444260001
  0
LINE
  5
1AD
100
AcDbEntity
  8
0
  6
CONTINUOUS
 62
    7
370
   15
100
AcDbLine
 10
-754.057009018
 20
1072.7641017471
 11
-750.8849690323
 21
1086.1945779358
  0
ARC
  5
1AE
100
AcDbEntity
  8
0
  6
CONTINUOUS
 62
    7
370
   15
100
AcDbCircle
 10
-858.1651432716
 20
1095.2972607988
 40
2.000000000000019
100
AcDbArc
 50
76.7114244425
 51
346.7114244426
  0
LINE
  5
1AF
100
AcDbEntity
  8
0
  6
CONTINUOUS
 62
    7
370
   15
100
AcDbLine
 10
-856.2187145119
 20
1094.8374898468
 11
-824.5889137154001
 21
1087.3672397171
  0
ARC
  5
1B0
100
AcDbEntity
  8
0
  6
CONTINUOUS
 62
    7
370
   15
100
AcDbCircle
 10
-822.6424408456
 20
1086.9075282433
 40
1.999999999999993
100
AcDbArc
 50
166.7114244425
 51
76.7114244425
  0
LINE
  5
1B1
100
AcDbEntity
  8
0
  6
CONTINUOUS
 62
    7
370
   15
100
AcDbLine
 10
-822.1827338104
 20
1088.8540179764
 11
-819.0106938248
 21
1102.284494165
  0
ARC
  5
1B2
100
AcDbEntity
  8
0
  6
CONTINUOUS
 62
    7
370
   15
100
AcDbCircle
 10
-818.5510096268
 20
1104.2309283305
 40
2.000000000000214
100
AcDbArc
 50
256.7114244426
 51
166.7114244425
  0
LINE
  5
1B3
100
AcDbEntity
  8
0
  6
CONTINUOUS
 62
    7
370
   15
100
AcDbLine
 10
-820.4974720841
 20
1104.6906144653
 11
-852.1272728806
 21
1112.1609838043
  0
ARC
  5
1B4
100
AcDbEntity
  8
0
  6
CONTINUOUS
 62
    7
370
   15
100
AcDbCircle
 10
-854.0737120528
 20
1112.620660886
 40
1.999999999999967
100
AcDbArc
 50
346.7114244426
 51
256.7114244425
  0
LINE
  5
1B5
100
AcDbEntity
  8
0
  6
CONTINUOUS
 62
    7
370
   15
100
AcDbLine
 10
-854.5334527855
 20
1110.6742055451
 11
-857.7054331665
 21
1097.2437293564
  0
ARC
  5
1B6
100
AcDbEntity
  8
0
  6
CONTINUOUS
 62
    7
370
   15
100
AcDbCircle
 10
-1286.114569605
 20
537.1084555812
 40
2
100
AcDbArc
 50
360
 51
270
  0
LINE
  5
1B7
100
AcDbEntity
  8
0
  6
CONTINUOUS
 62
    7
370
   15
100
AcDbLine
 10
-1286.1145625477
 20
535.1084501778
 11
-1286.1145625477
 21
502.6084811722
  0
ARC
  5
1B8
100
AcDbEntity
  8
0
  6
CONTINUOUS
 62
    7
370
   15
100
AcDbCircle
 10
-1286.114569605
 20
500.6084555812
 40
2
100
AcDbArc
 50
90
 51
0
  0
LINE
  5
1B9
100
AcDbEntity
  8
0
  6
CONTINUOUS
 62
    7
370
   15
100
AcDbLine
 10
-1284.1145584946
 20
500.6084473167
 11
-1270.3145633106
 21
500.6084473167
  0
ARC
  5
1BA
100
AcDbEntity
  8
0
  6
CONTINUOUS
 62
    7
370
   15
100
AcDbCircle
 10
-1268.314569605
 20
500.6084555812
 40
2
100
AcDbArc
 50
180
 51
90
  0
LINE
  5
1BB
100
AcDbEntity
  8
0
  6
CONTINUOUS
 62
    7
370
   15
100
AcDbLine
 10
-1268.3145592575
 20
502.6084811722
 11
-1268.3145592575
 21
535.1084501778
  0
ARC
  5
1BC
100
AcDbEntity
  8
0
  6
CONTINUOUS
 62
    7
370
   15
100
AcDbCircle
 10
-1268.314569605
 20
537.1084555812
 40
2
100
AcDbArc
 50
270
 51
180
  0
LINE
  5
1BD
100
AcDbEntity
  8
0
  6
CONTINUOUS
 62
    7
370
   15
100
AcDbLine
 10
-1270.3145633106
 20
537.1084840332001
 11
-1284.1145584946
 21
537.1084840332001
  0
LINE
  5
1BE
100
AcDbEntity
  8
0
  6
CONTINUOUS
 62
    7
370
   15
100
AcDbLine
 10
-1192.2145674591
 20
432.8584702049
 11
-1362.2145692473
 21
432.8584702049
  0
LINE
  5
1BF
100
AcDbEntity
  8
0
  6
CONTINUOUS
 62
    7
370
   15
100
AcDbLine
 10
-1362.2145692473
 20
432.8584702049
 11
-1362.2145692473
 21
741.8584258591
  0
LINE
  5
1C0
100
AcDbEntity
  8
0
  6
CONTINUOUS
 62
    7
370
   15
100
AcDbLine
 10
-1362.2145692473
 20
741.8584258591
 11
-1192.2145674591
 21
741.8584258591
  0
LINE
  5
1C1
100
AcDbEntity
  8
0
  6
CONTINUOUS
 62
    7
370
   15
100
AcDbLine
 10
-1192.2145674591
 20
741.8584258591
 11
-1192.2145674591
 21
432.8584702049
  0
ARC
  5
1C2
100
AcDbEntity
  8
0
  6
CONTINUOUS
 62
    7
370
   15
100
AcDbCircle
 10
-1286.114569605
 20
677.1084555812
 40
2
100
AcDbArc
 50
0
 51
270
  0
LINE
  5
1C3
100
AcDbEntity
  8
0
  6
CONTINUOUS
 62
    7
370
   15
100
AcDbLine
 10
-1286.1145625477
 20
675.1084358727001
 11
-1286.1145625477
 21
642.6084668671
  0
ARC
  5
1C4
100
AcDbEntity
  8
0
  6
CONTINUOUS
 62
    7
370
   15
100
AcDbCircle
 10
-1286.114569605
 20
640.6084555812
 40
2
100
AcDbArc
 50
90
 51
0
  0
LINE
  5
1C5
100
AcDbEntity
  8
0
  6
CONTINUOUS
 62
    7
370
   15
100
AcDbLine
 10
-1284.1145584946
 20
640.6084330116
 11
-1270.3145633106
 21
640.6084330116
  0
ARC
  5
1C6
100
AcDbEntity
  8
0
  6
CONTINUOUS
 62
    7
370
   15
100
AcDbCircle
 10
-1268.314569605
 20
640.6084555812
 40
2
100
AcDbArc
 50
180
 51
90
  0
LINE
  5
1C7
100
AcDbEntity
  8
0
  6
CONTINUOUS
 62
    7
370
   15
100
AcDbLine
 10
-1268.3145592575
 20
642.6084668671
 11
-1268.3145592575
 21
675.1084358727001
  0
ARC
  5
1C8
100
AcDbEntity
  8
0
  6
CONTINUOUS
 62
    7
370
   15
100
AcDbCircle
 10
-1268.314569605
 20
677.1084555812
 40
2
100
AcDbArc
 50
270
 51
180
  0
LINE
  5
1C9
100
AcDbEntity
  8
0
  6
CONTINUOUS
 62
    7
370
   15
100
AcDbLine
 10
-1270.3145633106
 20
677.1084697281
 11
-1284.1145584946
 21
677.1084697281
  0
ARC
  5
1CA
100
AcDbEntity
  8
0
  6
CONTINUOUS
 62
    7
370
   15
100
AcDbCircle
 10
-1268.314569605
 20
570.6084555812
 40
2
100
AcDbArc
 50
180
 51
90
  0
LINE
  5
1CB
100
AcDbEntity
  8
0
  6
CONTINUOUS
 62
    7
370
   15
100
AcDbLine
 10
-1268.3145592575
 20
572.6084740196
 11
-1268.3145592575
 21
605.1084430252
  0
ARC
  5
1CC
100
AcDbEntity
  8
0
  6
CONTINUOUS
 62
    7
370
   15
100
AcDbCircle
 10
-1268.314569605
 20
607.1084555812
 40
2
100
AcDbArc
 50
270
 51
180
  0
LINE
  5
1CD
100
AcDbEntity
  8
0
  6
CONTINUOUS
 62
    7
370
   15
100
AcDbLine
 10
-1270.3145633106
 20
607.1084768807
 11
-1284.1145584946
 21
607.1084768807
  0
ARC
  5
1CE
100
AcDbEntity
  8
0
  6
CONTINUOUS
 62
    7
370
   15
100
AcDbCircle
 10
-1286.114569605
 20
607.1084555812
 40
2
100
AcDbArc
 50
0
 51
270
  0
LINE
  5
1CF
100
AcDbEntity
  8
0
  6
CONTINUOUS
 62
    7
370
   15
100
AcDbLine
 10
-1286.1145625477
 20
605.1084430252
 11
-1286.1145625477
 21
572.6084740196
  0
ARC
  5
1D0
100
AcDbEntity
  8
0
  6
CONTINUOUS
 62
    7
370
   15
100
AcDbCircle
 10
-1286.114569605
 20
570.6084555812
 40
2
100
AcDbArc
 50
90
 51
0
  0
LINE
  5
1D1
100
AcDbEntity
  8
0
  6
CONTINUOUS
 62
    7
370
   15
100
AcDbLine
 10
-1284.1145584946
 20
570.6084401642
 11
-1270.3145633106
 21
570.6084401642
  0
LINE
  5
1D2
100
AcDbEntity
  8
0
  6
CONTINUOUS
 62
    7
370
   15
100
AcDbLine
 10
-58.3948681717
 20
1499.3057878052
 11
-1582.3949168091
 21
1499.3057878052
  0
LINE
  5
1D3
100
AcDbEntity
  8
0
  6
CONTINUOUS
 62
    7
370
   15
100
AcDbLine
 10
-1582.3949168091
 20
-24.6942608322
 11
-58.3948681717
 21
-24.6942608322
  0
LINE
  5
1D4
100
AcDbEntity
  8
0
  6
CONTINUOUS
 62
    7
370
   15
100
AcDbLine
 10
-1582.3949168091
 20
1499.3057878052
 11
-1582.3949168091
 21
-24.6942608322
  0
LINE
  5
1D5
100
AcDbEntity
  8
0
  6
CONTINUOUS
 62
    7
370
   15
100
AcDbLine
 10
-58.3948681717
 20
-24.6942608322
 11
-58.3948681717
 21
1499.3057878052
  0
CIRCLE
  5
1D6
100
AcDbEntity
  8
0
  6
ByLayer
 62
  256
370
   -1
100
AcDbCircle
 10
-1484.6299812498
 20
1383.2967231413
 40
2.000000000000123
  0
CIRCLE
  5
1D7
100
AcDbEntity
  8
0
  6
ByLayer
 62
  256
370
   -1
100
AcDbCircle
 10
-1483.0437467318
 20
1365.1659796361
 40
1.99999999999995
  0
CIRCLE
  5
1D8
100
AcDbEntity
  8
0
  6
ByLayer
 62
  256
370
   -1
100
AcDbCircle
 10
-1371.8114228958
 20
1383.2967231413
 40
1.999999999999838
  0
CIRCLE
  5
1D9
100
AcDbEntity
  8
0
  6
ByLayer
 62
  256
370
   -1
100
AcDbCircle
 10
-1370.2251883778
 20
1365.1659796361
 40
1.999999999999801
  0
CIRCLE
  5
1DA
100
AcDbEntity
  8
0
  6
ByLayer
 62
  256
370
   -1
100
AcDbCircle
 10
-1481.2340118272
 20
1200.2406715071
 40
1.999999999999916
  0
CIRCLE
  5
1DB
100
AcDbEntity
  8
0
  6
ByLayer
 62
  256
370
   -1
100
AcDbCircle
 10
-1481.2340118272
 20
1182.0406715071
 40
2.00000000000003
  0
CIRCLE
  5
1DC
100
AcDbEntity
  8
0
  6
ByLayer
 62
  256
370
   -1
100
AcDbCircle
 10
-1368.4154534732
 20
1200.2406715071
 40
1.999999999999755
  0
CIRCLE
  5
1DD
100
AcDbEntity
  8
0
  6
ByLayer
 62
  256
370
   -1
100
AcDbCircle
 10
-1368.4154534732
 20
1182.0406715071
 40
1.999999999999837
  0
CIRCLE
  5
1DE
100
AcDbEntity
  8
0
  6
ByLayer
 62
  256
370
   -1
100
AcDbCircle
 10
-1483.0437467318
 20
1017.1153633781
 40
2.000000000000233
  0
CIRCLE
  5
1DF
100
AcDbEntity
  8
0
  6
ByLayer
 62
  256
370
   -1
100
AcDbCircle
 10
-1484.6299812498
 20
998.9846198728
 40
2.000000000000163
  0
CIRCLE
  5
1E0
100
AcDbEntity
  8
0
  6
ByLayer
 62
  256
370
   -1
100
AcDbCircle
 10
-1371.8114228958
 20
998.9846198728
 40
2.000000000000127
  0
CIRCLE
  5
1E1
100
AcDbEntity
  8
0
  6
ByLayer
 62
  256
370
   -1
100
AcDbCircle
 10
-1370.2251883778
 20
1017.1153633781
 40
2.000000000000138
  0
CIRCLE
  5
1E2
100
AcDbEntity
  8
0
  6
ByLayer
 62
  256
370
   -1
100
AcDbCircle
 10
-1243.963034392
 20
996.8257165214
 40
1.999999999999906
  0
CIRCLE
  5
1E3
100
AcDbEntity
  8
0
  6
ByLayer
 62
  256
370
   -1
100
AcDbCircle
 10
-1243.963034392
 20
1015.0257165214
 40
1.999999999999807
  0
CIRCLE
  5
1E4
100
AcDbEntity
  8
0
  6
ByLayer
 62
  256
370
   -1
100
AcDbCircle
 10
-1277.963034392
 20
1044.4808437936
 40
1.999999999999813
  0
CIRCLE
  5
1E5
100
AcDbEntity
  8
0
  6
ByLayer
 62
  256
370
   -1
100
AcDbCircle
 10
-1277.963034392
 20
1080.4808437936
 40
2.000000000000255
  0
CIRCLE
  5
1E6
100
AcDbEntity
  8
0
  6
ByLayer
 62
  256
370
   -1
100
AcDbCircle
 10
-1277.963034392
 20
1114.4808437936
 40
2.00000000000033
  0
CIRCLE
  5
1E7
100
AcDbEntity
  8
0
  6
ByLayer
 62
  256
370
   -1
100
AcDbCircle
 10
-1277.963034392
 20
1150.4808437936
 40
1.999999999999693
  0
CIRCLE
  5
1E8
100
AcDbEntity
  8
0
  6
ByLayer
 62
  256
370
   -1
100
AcDbCircle
 10
-1277.963034392
 20
1184.4808437936
 40
1.999999999999898
  0
CIRCLE
  5
1E9
100
AcDbEntity
  8
0
  6
ByLayer
 62
  256
370
   -1
100
AcDbCircle
 10
-1277.963034392
 20
1220.4808437936
 40
2.000000000000187
  0
CIRCLE
  5
1EA
100
AcDbEntity
  8
0
  6
ByLayer
 62
  256
370
   -1
100
AcDbCircle
 10
-1243.963034392
 20
1255.0257165214
 40
1.999999999999849
  0
CIRCLE
  5
1EB
100
AcDbEntity
  8
0
  6
ByLayer
 62
  256
370
   -1
100
AcDbCircle
 10
-1243.963034392
 20
1273.2257165214
 40
1.999999999999727
  0
CIRCLE
  5
1EC
100
AcDbEntity
  8
0
  6
ByLayer
 62
  256
370
   -1
100
AcDbCircle
 10
-1170.4280636168
 20
1000.9822974167
 40
2.00000000000023
  0
CIRCLE
  5
1ED
100
AcDbEntity
  8
0
  6
ByLayer
 62
  256
370
   -1
100
AcDbCircle
 10
-1172.0404448576
 20
1019.4118993314
 40
2.000000000000306
  0
CIRCLE
  5
1EE
100
AcDbEntity
  8
0
  6
ByLayer
 62
  256
370
   -1
100
AcDbCircle
 10
-1150.1241614996
 20
1021.3293256718
 40
1.999999999999914
  0
CIRCLE
  5
1EF
100
AcDbEntity
  8
0
  6
ByLayer
 62
  256
370
   -1
100
AcDbCircle
 10
-1148.5117802587
 20
1002.8997237571
 40
2.000000000000313
  0
CIRCLE
  5
1F0
100
AcDbEntity
  8
0
  6
ByLayer
 62
  256
370
   -1
100
AcDbCircle
 10
-1150.1241614996
 20
1417.8418960229
 40
1.999999999999979
  0
CIRCLE
  5
1F1
100
AcDbEntity
  8
0
  6
ByLayer
 62
  256
370
   -1
100
AcDbCircle
 10
-1172.0404448576
 20
1419.7593223633
 40
2.000000000000404
  0
CIRCLE
  5
1F2
100
AcDbEntity
  8
0
  6
ByLayer
 62
  256
370
   -1
100
AcDbCircle
 10
-1170.4280636168
 20
1438.188924278
 40
2.000000000000258
  0
CIRCLE
  5
1F3
100
AcDbEntity
  8
0
  6
ByLayer
 62
  256
370
   -1
100
AcDbCircle
 10
-1148.5117802587
 20
1436.2714979376
 40
2.000000000000422
  0
CIRCLE
  5
1F4
100
AcDbEntity
  8
0
  6
ByLayer
 62
  256
370
   -1
100
AcDbCircle
 10
-1505.5230712154
 20
912.6079544670999
 40
2.000000000000062
  0
CIRCLE
  5
1F5
100
AcDbEntity
  8
0
  6
ByLayer
 62
  256
370
   -1
100
AcDbCircle
 10
-1507.1354524563
 20
894.1783525524
 40
2.000000000000262
  0
CIRCLE
  5
1F6
100
AcDbEntity
  8
0
  6
ByLayer
 62
  256
370
   -1
100
AcDbCircle
 10
-1485.2191690983
 20
892.260926212
 40
2.000000000000321
  0
CIRCLE
  5
1F7
100
AcDbEntity
  8
0
  6
ByLayer
 62
  256
370
   -1
100
AcDbCircle
 10
-1483.6067878574
 20
910.6905281267
 40
2.000000000000048
  0
CIRCLE
  5
1F8
100
AcDbEntity
  8
0
  6
ByLayer
 62
  256
370
   -1
100
AcDbCircle
 10
-1507.1354524563
 20
493.8309295205
 40
2.000000000000288
  0
CIRCLE
  5
1F9
100
AcDbEntity
  8
0
  6
ByLayer
 62
  256
370
   -1
100
AcDbCircle
 10
-1505.5230712154
 20
475.4013276058
 40
1.999999999999963
  0
CIRCLE
  5
1FA
100
AcDbEntity
  8
0
  6
ByLayer
 62
  256
370
   -1
100
AcDbCircle
 10
-1483.6067878574
 20
477.3187539462
 40
2.000000000000062
  0
CIRCLE
  5
1FB
100
AcDbEntity
  8
0
  6
ByLayer
 62
  256
370
   -1
100
AcDbCircle
 10
-1485.2191690983
 20
495.7483558609
 40
2.000000000000064
  0
CIRCLE
  5
1FC
100
AcDbEntity
  8
0
  6
ByLayer
 62
  256
370
   -1
100
AcDbCircle
 10
-1426.6914602012
 20
606.9489459128999
 40
2.000000000000269
  0
CIRCLE
  5
1FD
100
AcDbEntity
  8
0
  6
ByLayer
 62
  256
370
   -1
100
AcDbCircle
 10
-1426.6914602012
 20
584.4489459128999
 40
2.000000000000316
  0
CIRCLE
  5
1FE
100
AcDbEntity
  8
0
  6
ByLayer
 62
  256
370
   -1
100
AcDbCircle
 10
-1435.636332929
 20
878.9892618944
 40
2.000000000000238
  0
CIRCLE
  5
1FF
100
AcDbEntity
  8
0
  6
ByLayer
 62
  256
370
   -1
100
AcDbCircle
 10
-1417.436332929
 20
878.9892618944
 40
2.000000000000225
  0
CIRCLE
  5
200
100
AcDbEntity
  8
0
  6
ByLayer
 62
  256
370
   -1
100
AcDbCircle
 10
-1382.6914602012
 20
918.3792618944
 40
1.999999999999997
  0
CIRCLE
  5
201
100
AcDbEntity
  8
0
  6
ByLayer
 62
  256
370
   -1
100
AcDbCircle
 10
-1346.6914602012
 20
918.3792618944
 40
1.999999999999995
  0
CIRCLE
  5
202
100
AcDbEntity
  8
0
  6
ByLayer
 62
  256
370
   -1
100
AcDbCircle
 10
-1312.6914602012
 20
918.3792618944
 40
2.000000000000047
  0
CIRCLE
  5
203
100
AcDbEntity
  8
0
  6
ByLayer
 62
  256
370
   -1
100
AcDbCircle
 10
-1276.6914602012
 20
918.3792618944
 40
1.999999999999998
  0
CIRCLE
  5
204
100
AcDbEntity
  8
0
  6
ByLayer
 62
  256
370
   -1
100
AcDbCircle
 10
-1242.6914602012
 20
918.3792618944
 40
1.999999999999945
  0
CIRCLE
  5
205
100
AcDbEntity
  8
0
  6
ByLayer
 62
  256
370
   -1
100
AcDbCircle
 10
-1206.6914602012
 20
918.3792618944
 40
2.000000000000321
  0
CIRCLE
  5
206
100
AcDbEntity
  8
0
  6
ByLayer
 62
  256
370
   -1
100
AcDbCircle
 10
-1177.436332929
 20
878.9892618944
 40
2.000000000000179
  0
CIRCLE
  5
207
100
AcDbEntity
  8
0
  6
ByLayer
 62
  256
370
   -1
100
AcDbCircle
 10
-1159.236332929
 20
878.9892618944
 40
2.000000000000266
  0
CIRCLE
  5
208
100
AcDbEntity
  8
0
  6
ByLayer
 62
  256
370
   -1
100
AcDbCircle
 10
-1286.114569605
 20
677.1084555812
 40
2.000000000000075
  0
CIRCLE
  5
209
100
AcDbEntity
  8
0
  6
ByLayer
 62
  256
370
   -1
100
AcDbCircle
 10
-1268.314569605
 20
677.1084555812
 40
1.999999999999909
  0
CIRCLE
  5
20A
100
AcDbEntity
  8
0
  6
ByLayer
 62
  256
370
   -1
100
AcDbCircle
 10
-1268.314569605
 20
640.6084555812
 40
2.000000000000092
  0
CIRCLE
  5
20B
100
AcDbEntity
  8
0
  6
ByLayer
 62
  256
370
   -1
100
AcDbCircle
 10
-1286.114569605
 20
640.6084555812
 40
2.000000000000052
  0
CIRCLE
  5
20C
100
AcDbEntity
  8
0
  6
ByLayer
 62
  256
370
   -1
100
AcDbCircle
 10
-1286.114569605
 20
607.1084555812
 40
1.99999999999997
  0
CIRCLE
  5
20D
100
AcDbEntity
  8
0
  6
ByLayer
 62
  256
370
   -1
100
AcDbCircle
 10
-1268.314569605
 20
607.1084555812
 40
1.999999999999921
  0
CIRCLE
  5
20E
100
AcDbEntity
  8
0
  6
ByLayer
 62
  256
370
   -1
100
AcDbCircle
 10
-1268.314569605
 20
570.6084555812
 40
2.000000000000031
  0
CIRCLE
  5
20F
100
AcDbEntity
  8
0
  6
ByLayer
 62
  256
370
   -1
100
AcDbCircle
 10
-1286.114569605
 20
570.6084555812
 40
2.000000000000042
  0
CIRCLE
  5
210
100
AcDbEntity
  8
0
  6
ByLayer
 62
  256
370
   -1
100
AcDbCircle
 10
-1268.314569605
 20
537.1084555812
 40
1.999999999999892
  0
CIRCLE
  5
211
100
AcDbEntity
  8
0
  6
ByLayer
 62
  256
370
   -1
100
AcDbCircle
 10
-1286.114569605
 20
537.1084555812
 40
1.999999999999939
  0
CIRCLE
  5
212
100
AcDbEntity
  8
0
  6
ByLayer
 62
  256
370
   -1
100
AcDbCircle
 10
-1286.114569605
 20
500.6084555812
 40
1.999999999999966
  0
CIRCLE
  5
213
100
AcDbEntity
  8
0
  6
ByLayer
 62
  256
370
   -1
100
AcDbCircle
 10
-1268.314569605
 20
500.6084555812
 40
2.000000000000044
  0
CIRCLE
  5
214
100
AcDbEntity
  8
0
  6
ByLayer
 62
  256
370
   -1
100
AcDbCircle
 10
-1091.5761125334
 20
606.9489459128999
 40
2.000000000000058
  0
CIRCLE
  5
215
100
AcDbEntity
  8
0
  6
ByLayer
 62
  256
370
   -1
100
AcDbCircle
 10
-1091.5761125334
 20
584.4489459128999
 40
1.999999999999902
  0
CIRCLE
  5
216
100
AcDbEntity
  8
0
  6
ByLayer
 62
  256
370
   -1
100
AcDbCircle
 10
-1057.7780762642
 20
1242.9523313418
 40
2.000000000000079
  0
CIRCLE
  5
217
100
AcDbEntity
  8
0
  6
ByLayer
 62
  256
370
   -1
100
AcDbCircle
 10
-1048.5838488061
 20
1281.8813203018
 40
1.999999999999987
  0
CIRCLE
  5
218
100
AcDbEntity
  8
0
  6
ByLayer
 62
  256
370
   -1
100
AcDbCircle
 10
-901.2814096072
 20
606.9489459128999
 40
2.000000000000021
  0
CIRCLE
  5
219
100
AcDbEntity
  8
0
  6
ByLayer
 62
  256
370
   -1
100
AcDbCircle
 10
-901.2814096072
 20
584.4489459128999
 40
1.99999999999997
  0
CIRCLE
  5
21A
100
AcDbEntity
  8
0
  6
ByLayer
 62
  256
370
   -1
100
AcDbCircle
 10
-910.226282335
 20
878.9892618944
 40
2.000000000000013
  0
CIRCLE
  5
21B
100
AcDbEntity
  8
0
  6
ByLayer
 62
  256
370
   -1
100
AcDbCircle
 10
-892.026282335
 20
878.9892618944
 40
1.999999999999984
  0
CIRCLE
  5
21C
100
AcDbEntity
  8
0
  6
ByLayer
 62
  256
370
   -1
100
AcDbCircle
 10
-857.2814096072
 20
918.3792618944
 40
2.000000000000044
  0
CIRCLE
  5
21D
100
AcDbEntity
  8
0
  6
ByLayer
 62
  256
370
   -1
100
AcDbCircle
 10
-821.2814096072
 20
918.3792618944
 40
2.000000000000032
  0
CIRCLE
  5
21E
100
AcDbEntity
  8
0
  6
ByLayer
 62
  256
370
   -1
100
AcDbCircle
 10
-787.2814096072
 20
918.3792618944
 40
1.999999999999995
  0
CIRCLE
  5
21F
100
AcDbEntity
  8
0
  6
ByLayer
 62
  256
370
   -1
100
AcDbCircle
 10
-751.2814096072
 20
918.3792618944
 40
1.99999999999999
  0
CIRCLE
  5
220
100
AcDbEntity
  8
0
  6
ByLayer
 62
  256
370
   -1
100
AcDbCircle
 10
-717.2814096072
 20
918.3792618944
 40
2.000000000000028
  0
CIRCLE
  5
221
100
AcDbEntity
  8
0
  6
ByLayer
 62
  256
370
   -1
100
AcDbCircle
 10
-681.2814096072
 20
918.3792618944
 40
2.000000000000001
  0
CIRCLE
  5
222
100
AcDbEntity
  8
0
  6
ByLayer
 62
  256
370
   -1
100
AcDbCircle
 10
-652.026282335
 20
878.9892618944
 40
1.999999999999981
  0
CIRCLE
  5
223
100
AcDbEntity
  8
0
  6
ByLayer
 62
  256
370
   -1
100
AcDbCircle
 10
-633.826282335
 20
878.9892618944
 40
1.999999999999991
  0
CIRCLE
  5
224
100
AcDbEntity
  8
0
  6
ByLayer
 62
  256
370
   -1
100
AcDbCircle
 10
-532.3680256702
 20
1242.9523313418
 40
2.000000000000068
  0
CIRCLE
  5
225
100
AcDbEntity
  8
0
  6
ByLayer
 62
  256
370
   -1
100
AcDbCircle
 10
-523.173798212
 20
1281.8813203018
 40
2.000000000000058
  0
CIRCLE
  5
226
100
AcDbEntity
  8
0
  6
ByLayer
 62
  256
370
   -1
100
AcDbCircle
 10
-879.4070292054
 20
1322.9482370792
 40
2.000000000000068
  0
CIRCLE
  5
227
100
AcDbEntity
  8
0
  6
ByLayer
 62
  256
370
   -1
100
AcDbCircle
 10
-875.3155979865001
 20
1340.2716371664
 40
2.000000000000034
  0
CIRCLE
  5
228
100
AcDbEntity
  8
0
  6
ByLayer
 62
  256
370
   -1
100
AcDbCircle
 10
-839.7928955605
 20
1331.8819046108
 40
2.000000000000023
  0
CIRCLE
  5
229
100
AcDbEntity
  8
0
  6
ByLayer
 62
  256
370
   -1
100
AcDbCircle
 10
-843.8843267794
 20
1314.5585045236
 40
2.000000000000186
  0
CIRCLE
  5
22A
100
AcDbEntity
  8
0
  6
ByLayer
 62
  256
370
   -1
100
AcDbCircle
 10
-807.1898673065
 20
1324.1817391146
 40
1.999999999999904
  0
CIRCLE
  5
22B
100
AcDbEntity
  8
0
  6
ByLayer
 62
  256
370
   -1
100
AcDbCircle
 10
-811.2812985254
 20
1306.8583390274
 40
2.000000000000044
  0
CIRCLE
  5
22C
100
AcDbEntity
  8
0
  6
ByLayer
 62
  256
370
   -1
100
AcDbCircle
 10
-775.7585960994001
 20
1298.4686064718
 40
1.999999999999982
  0
CIRCLE
  5
22D
100
AcDbEntity
  8
0
  6
ByLayer
 62
  256
370
   -1
100
AcDbCircle
 10
-771.6671648805
 20
1315.792006559
 40
2.000000000000098
  0
CIRCLE
  5
22E
100
AcDbEntity
  8
0
  6
ByLayer
 62
  256
370
   -1
100
AcDbCircle
 10
-743.1555678454
 20
1290.7684409756
 40
2.000000000000094
  0
CIRCLE
  5
22F
100
AcDbEntity
  8
0
  6
ByLayer
 62
  256
370
   -1
100
AcDbCircle
 10
-739.0641366265
 20
1308.0918410628
 40
2.000000000000006
  0
CIRCLE
  5
230
100
AcDbEntity
  8
0
  6
ByLayer
 62
  256
370
   -1
100
AcDbCircle
 10
-707.6328654194
 20
1282.37870842
 40
1.999999999999984
  0
CIRCLE
  5
231
100
AcDbEntity
  8
0
  6
ByLayer
 62
  256
370
   -1
100
AcDbCircle
 10
-703.5414342005
 20
1299.7021085072
 40
2.000000000000172
  0
CIRCLE
  5
232
100
AcDbEntity
  8
0
  6
ByLayer
 62
  256
370
   -1
100
AcDbCircle
 10
-754.5167101656
 20
1070.8176301915
 40
2.000000000000222
  0
CIRCLE
  5
233
100
AcDbEntity
  8
0
  6
ByLayer
 62
  256
370
   -1
100
AcDbCircle
 10
-750.4252789467999
 20
1088.1410302787
 40
2.000000000000036
  0
CIRCLE
  5
234
100
AcDbEntity
  8
0
  6
ByLayer
 62
  256
370
   -1
100
AcDbCircle
 10
-785.9479813728
 20
1096.5307628342
 40
2.000000000000332
  0
CIRCLE
  5
235
100
AcDbEntity
  8
0
  6
ByLayer
 62
  256
370
   -1
100
AcDbCircle
 10
-790.0394125916
 20
1079.207362747
 40
2.000000000000072
  0
CIRCLE
  5
236
100
AcDbEntity
  8
0
  6
ByLayer
 62
  256
370
   -1
100
AcDbCircle
 10
-822.6424408456
 20
1086.9075282433
 40
2.000000000000069
  0
CIRCLE
  5
237
100
AcDbEntity
  8
0
  6
ByLayer
 62
  256
370
   -1
100
AcDbCircle
 10
-818.5510096268
 20
1104.2309283305
 40
2.00000000000023
  0
CIRCLE
  5
238
100
AcDbEntity
  8
0
  6
ByLayer
 62
  256
370
   -1
100
AcDbCircle
 10
-854.0737120528
 20
1112.620660886
 40
1.999999999999915
  0
CIRCLE
  5
239
100
AcDbEntity
  8
0
  6
ByLayer
 62
  256
370
   -1
100
AcDbCircle
 10
-858.1651432716
 20
1095.2972607988
 40
2.000000000000022
  0
CIRCLE
  5
23A
100
AcDbEntity
  8
0
  6
ByLayer
 62
  256
370
   -1
100
AcDbCircle
 10
-890.7681715256
 20
1102.997426295
 40
2.000000000000092
  0
CIRCLE
  5
23B
100
AcDbEntity
  8
0
  6
ByLayer
 62
  256
370
   -1
100
AcDbCircle
 10
-886.6767403067
 20
1120.3208263822
 40
2.000000000000243
  0
CIRCLE
  5
23C
100
AcDbEntity
  8
0
  6
ByLayer
 62
  256
370
   -1
100
AcDbCircle
 10
-922.1994427327
 20
1128.7105589378
 40
2.000000000000024
  0
CIRCLE
  5
23D
100
AcDbEntity
  8
0
  6
ByLayer
 62
  256
370
   -1
100
AcDbCircle
 10
-926.2908739516
 20
1111.3871588506
 40
2.000000000000309
  0
CIRCLE
  5
23E
100
AcDbEntity
  8
0
  6
ByLayer
 62
  256
370
   -1
100
AcDbCircle
 10
-760.956551798
 20
674.0124944424
 40
2.000000000000076
  0
CIRCLE
  5
23F
100
AcDbEntity
  8
0
  6
ByLayer
 62
  256
370
   -1
100
AcDbCircle
 10
-720.602509357
 20
677.4477904514
 40
2.000000000000028
  0
CIRCLE
  5
240
100
AcDbEntity
  8
0
  6
ByLayer
 62
  256
370
   -1
100
AcDbCircle
 10
-719.0333000689
 20
659.0144624228
 40
1.999999999999859
  0
CIRCLE
  5
241
100
AcDbEntity
  8
0
  6
ByLayer
 62
  256
370
   -1
100
AcDbCircle
 10
-759.3873425099
 20
655.5791664137
 40
1.999999999999995
  0
CIRCLE
  5
242
100
AcDbEntity
  8
0
  6
ByLayer
 62
  256
370
   -1
100
AcDbCircle
 10
-720.602509357
 20
356.9548316493
 40
2.000000000000186
  0
CIRCLE
  5
243
100
AcDbEntity
  8
0
  6
ByLayer
 62
  256
370
   -1
100
AcDbCircle
 10
-719.0333000689
 20
375.3881596779
 40
2.00000000000006
  0
CIRCLE
  5
244
100
AcDbEntity
  8
0
  6
ByLayer
 62
  256
370
   -1
100
AcDbCircle
 10
-759.3873425099
 20
378.823455687
 40
1.99999999999998
  0
CIRCLE
  5
245
100
AcDbEntity
  8
0
  6
ByLayer
 62
  256
370
   -1
100
AcDbCircle
 10
-760.956551798
 20
360.3901276584
 40
2.000000000000205
  0
CIRCLE
  5
246
100
AcDbEntity
  8
0
  6
ByLayer
 62
  256
370
   -1
100
AcDbCircle
 10
-566.1660619394
 20
606.9489459128999
 40
2.000000000000056
  0
CIRCLE
  5
247
100
AcDbEntity
  8
0
  6
ByLayer
 62
  256
370
   -1
100
AcDbCircle
 10
-566.1660619394
 20
584.4489459128999
 40
1.999999999999978
  0
LINE
  5
248
100
AcDbEntity
  8
0
  6
CONTINUOUS
 62
    7
370
   25
100
AcDbLine
 10
-227.8674840661354
 20
964.8139873409322
 11
-427.8674840661354
 21
964.8139873409322
  0
ARC
  5
249
100
AcDbEntity
  8
0
  6
CONTINUOUS
 62
    7
370
   25
100
AcDbCircle
 10
-427.8674840661354
 20
956.3139873409322
 40
8.500000000000057
100
AcDbArc
 50
90
 51
270
  0
LINE
  5
24A
100
AcDbEntity
  8
0
  6
CONTINUOUS
 62
    7
370
   25
100
AcDbLine
 10
-427.8674840661354
 20
947.8139873409322
 11
-227.8674840661354
 21
947.8139873409322
  0
LINE
  5
24B
100
AcDbEntity
  8
0
  6
CONTINUOUS
 62
    7
370
   25
100
AcDbLine
 10
-227.8674840661354
 20
947.8139873409322
 11
-227.8674840661354
 21
934.8139873409322
  0
LINE
  5
24C
100
AcDbEntity
  8
0
  6
CONTINUOUS
 62
    7
370
   25
100
AcDbLine
 10
-227.8674840661354
 20
934.8139873409322
 11
-427.8674840661354
 21
934.8139873409322
  0
ARC
  5
24D
100
AcDbEntity
  8
0
  6
CONTINUOUS
 62
    7
370
   25
100
AcDbCircle
 10
-427.8674840661354
 20
926.3139873409322
 40
8.5
100
AcDbArc
 50
90
 51
270
  0
LINE
  5
24E
100
AcDbEntity
  8
0
  6
CONTINUOUS
 62
    7
370
   25
100
AcDbLine
 10
-427.8674840661354
 20
917.8139873409322
 11
-227.8674840661354
 21
917.8139873409322
  0
LINE
  5
24F
100
AcDbEntity
  8
0
  6
CONTINUOUS
 62
    7
370
   25
100
AcDbLine
 10
-227.8674840661354
 20
917.8139873409322
 11
-227.8674840661354
 21
904.8139873409322
  0
LINE
  5
250
100
AcDbEntity
  8
0
  6
CONTINUOUS
 62
    7
370
   25
100
AcDbLine
 10
-227.8674840661354
 20
904.8139873409322
 11
-427.8674840661354
 21
904.8139873409322
  0
ARC
  5
251
100
AcDbEntity
  8
0
  6
CONTINUOUS
 62
    7
370
   25
100
AcDbCircle
 10
-427.8674840661354
 20
896.3139873409322
 40
8.500000000000057
100
AcDbArc
 50
90
 51
270
  0
LINE
  5
252
100
AcDbEntity
  8
0
  6
CONTINUOUS
 62
    7
370
   25
100
AcDbLine
 10
-427.8674840661354
 20
887.8139873409322
 11
-227.8674840661354
 21
887.8139873409322
  0
LINE
  5
253
100
AcDbEntity
  8
0
  6
CONTINUOUS
 62
    7
370
   25
100
AcDbLine
 10
-227.8674840661354
 20
887.8139873409322
 11
-227.8674840661354
 21
874.8139873409322
  0
LINE
  5
254
100
AcDbEntity
  8
0
  6
CONTINUOUS
 62
    7
370
   25
100
AcDbLine
 10
-227.8674840661354
 20
874.8139873409322
 11
-427.8674840661354
 21
874.8139873409322
  0
ARC
  5
255
100
AcDbEntity
  8
0
  6
CONTINUOUS
 62
    7
370
   25
100
AcDbCircle
 10
-427.8674840661354
 20
866.3139873409322
 40
8.5
100
AcDbArc
 50
90
 51
270
  0
LINE
  5
256
100
AcDbEntity
  8
0
  6
CONTINUOUS
 62
    7
370
   25
100
AcDbLine
 10
-427.8674840661354
 20
857.8139873409322
 11
-227.8674840661354
 21
857.8139873409322
  0
LINE
  5
257
100
AcDbEntity
  8
0
  6
CONTINUOUS
 62
    7
370
   25
100
AcDbLine
 10
-227.8674840661354
 20
857.8139873409322
 11
-227.8674840661354
 21
844.8139873409322
  0
LINE
  5
258
100
AcDbEntity
  8
0
  6
CONTINUOUS
 62
    7
370
   25
100
AcDbLine
 10
-227.8674840661354
 20
844.8139873409322
 11
-427.8674840661354
 21
844.8139873409322
  0
ARC
  5
259
100
AcDbEntity
  8
0
  6
CONTINUOUS
 62
    7
370
   25
100
AcDbCircle
 10
-427.8674840661354
 20
836.3139873409322
 40
8.500000000000114
100
AcDbArc
 50
90
 51
270
  0
LINE
  5
25A
100
AcDbEntity
  8
0
  6
CONTINUOUS
 62
    7
370
   25
100
AcDbLine
 10
-427.8674840661354
 20
827.8139873409322
 11
-227.8674840661354
 21
827.8139873409322
  0
LINE
  5
25B
100
AcDbEntity
  8
0
  6
CONTINUOUS
 62
    7
370
   25
100
AcDbLine
 10
-227.8674840661354
 20
827.8139873409322
 11
-227.8674840661354
 21
814.8139873409322
  0
LINE
  5
25C
100
AcDbEntity
  8
0
  6
CONTINUOUS
 62
    7
370
   25
100
AcDbLine
 10
-227.8674840661354
 20
814.8139873409322
 11
-427.8674840661354
 21
814.8139873409322
  0
ARC
  5
25D
100
AcDbEntity
  8
0
  6
CONTINUOUS
 62
    7
370
   25
100
AcDbCircle
 10
-427.8674840661354
 20
806.3139873409322
 40
8.5
100
AcDbArc
 50
90
 51
270
  0
LINE
  5
25E
100
AcDbEntity
  8
0
  6
CONTINUOUS
 62
    7
370
   25
100
AcDbLine
 10
-427.8674840661354
 20
797.8139873409322
 11
-227.8674840661354
 21
797.8139873409322
  0
LINE
  5
25F
100
AcDbEntity
  8
0
  6
CONTINUOUS
 62
    7
370
   25
100
AcDbLine
 10
-227.8674840661354
 20
797.8139873409322
 11
-227.8674840661354
 21
793.8139873409322
  0
ARC
  5
260
100
AcDbEntity
  8
0
  6
CONTINUOUS
 62
    7
370
   25
100
AcDbCircle
 10
-446.3065729807354
 20
984.8139873409322
 40
10.00000000000045
100
AcDbArc
 50
4.6507090049
 51
90
  0
LINE
  5
261
100
AcDbEntity
  8
0
  6
CONTINUOUS
 62
    7
370
   25
100
AcDbLine
 10
-427.8674840661354
 20
977.8139873409322
 11
-227.8674840661354
 21
977.8139873409322
  0
LINE
  5
262
100
AcDbEntity
  8
0
  6
CONTINUOUS
 62
    7
370
   25
100
AcDbLine
 10
-227.8674840661354
 20
977.8139873409322
 11
-227.8674840661354
 21
964.8139873409322
  0
LINE
  5
263
100
AcDbEntity
  8
0
  6
CONTINUOUS
 62
    7
370
   25
100
AcDbLine
 10
-477.8674840661354
 20
793.8139873409322
 11
-227.8674840661354
 21
793.8139873409322
  0
LINE
  5
264
100
AcDbEntity
  8
0
  6
CONTINUOUS
 62
    7
370
   25
100
AcDbLine
 10
-477.8674840661354
 20
934.8139873409322
 11
-477.8674840661354
 21
793.8139873409322
  0
LINE
  5
265
100
AcDbEntity
  8
0
  6
CONTINUOUS
 62
    7
370
   25
100
AcDbLine
 10
-495.8674840661354
 20
934.8139873409322
 11
-477.8674840661354
 21
934.8139873409322
  0
LINE
  5
266
100
AcDbEntity
  8
0
  6
CONTINUOUS
 62
    7
370
   25
100
AcDbLine
 10
-495.8674840661354
 20
959.8139873409322
 11
-495.8674840661354
 21
934.8139873409322
  0
LINE
  5
267
100
AcDbEntity
  8
0
  6
CONTINUOUS
 62
    7
370
   25
100
AcDbLine
 10
-477.8674840661354
 20
959.8139873409322
 11
-495.8674840661354
 21
959.8139873409322
  0
LINE
  5
268
100
AcDbEntity
  8
0
  6
CONTINUOUS
 62
    7
370
   25
100
AcDbLine
 10
-477.8674840661354
 20
994.8139873409322
 11
-477.8674840661354
 21
959.8139873409322
  0
LINE
  5
269
100
AcDbEntity
  8
0
  6
CONTINUOUS
 62
    7
370
   25
100
AcDbLine
 10
-477.8674840661354
 20
994.8139873409322
 11
-446.3065729807354
 21
994.8139873409322
  0
ARC
  5
26A
100
AcDbEntity
  8
0
  6
CONTINUOUS
 62
    7
370
   25
100
AcDbCircle
 10
-427.8674840661354
 20
986.3139873409322
 40
8.500000000000032
100
AcDbArc
 50
184.6507090049
 51
270
  0
LINE
  5
26B
100
AcDbEntity
  8
0
  6
CONTINUOUS
 62
    7
370
   25
100
AcDbLine
 10
-226.2705660887196
 20
742.84238848002
 11
-426.2705660887195
 21
742.84238848002
  0
ARC
  5
26C
100
AcDbEntity
  8
0
  6
CONTINUOUS
 62
    7
370
   25
100
AcDbCircle
 10
-426.2705660887195
 20
734.34238848002
 40
8.500000000000057
100
AcDbArc
 50
90
 51
270
  0
LINE
  5
26D
100
AcDbEntity
  8
0
  6
CONTINUOUS
 62
    7
370
   25
100
AcDbLine
 10
-426.2705660887195
 20
725.84238848002
 11
-226.2705660887196
 21
725.84238848002
  0
LINE
  5
26E
100
AcDbEntity
  8
0
  6
CONTINUOUS
 62
    7
370
   25
100
AcDbLine
 10
-226.2705660887196
 20
725.84238848002
 11
-226.2705660887196
 21
712.84238848002
  0
LINE
  5
26F
100
AcDbEntity
  8
0
  6
CONTINUOUS
 62
    7
370
   25
100
AcDbLine
 10
-226.2705660887196
 20
712.84238848002
 11
-426.2705660887195
 21
712.84238848002
  0
ARC
  5
270
100
AcDbEntity
  8
0
  6
CONTINUOUS
 62
    7
370
   25
100
AcDbCircle
 10
-426.2705660887195
 20
704.34238848002
 40
8.5
100
AcDbArc
 50
90
 51
270
  0
LINE
  5
271
100
AcDbEntity
  8
0
  6
CONTINUOUS
 62
    7
370
   25
100
AcDbLine
 10
-426.2705660887195
 20
695.84238848002
 11
-226.2705660887196
 21
695.84238848002
  0
LINE
  5
272
100
AcDbEntity
  8
0
  6
CONTINUOUS
 62
    7
370
   25
100
AcDbLine
 10
-226.2705660887196
 20
695.84238848002
 11
-226.2705660887196
 21
682.84238848002
  0
LINE
  5
273
100
AcDbEntity
  8
0
  6
CONTINUOUS
 62
    7
370
   25
100
AcDbLine
 10
-226.2705660887196
 20
682.84238848002
 11
-426.2705660887195
 21
682.84238848002
  0
ARC
  5
274
100
AcDbEntity
  8
0
  6
CONTINUOUS
 62
    7
370
   25
100
AcDbCircle
 10
-426.2705660887195
 20
674.34238848002
 40
8.500000000000057
100
AcDbArc
 50
90
 51
270
  0
LINE
  5
275
100
AcDbEntity
  8
0
  6
CONTINUOUS
 62
    7
370
   25
100
AcDbLine
 10
-426.2705660887195
 20
665.84238848002
 11
-226.2705660887196
 21
665.84238848002
  0
LINE
  5
276
100
AcDbEntity
  8
0
  6
CONTINUOUS
 62
    7
370
   25
100
AcDbLine
 10
-226.2705660887196
 20
665.84238848002
 11
-226.2705660887196
 21
652.84238848002
  0
LINE
  5
277
100
AcDbEntity
  8
0
  6
CONTINUOUS
 62
    7
370
   25
100
AcDbLine
 10
-226.2705660887196
 20
652.84238848002
 11
-426.2705660887195
 21
652.84238848002
  0
ARC
  5
278
100
AcDbEntity
  8
0
  6
CONTINUOUS
 62
    7
370
   25
100
AcDbCircle
 10
-426.2705660887195
 20
644.34238848002
 40
8.5
100
AcDbArc
 50
90
 51
270
  0
LINE
  5
279
100
AcDbEntity
  8
0
  6
CONTINUOUS
 62
    7
370
   25
100
AcDbLine
 10
-426.2705660887195
 20
635.84238848002
 11
-226.2705660887196
 21
635.84238848002
  0
LINE
  5
27A
100
AcDbEntity
  8
0
  6
CONTINUOUS
 62
    7
370
   25
100
AcDbLine
 10
-226.2705660887196
 20
635.84238848002
 11
-226.2705660887196
 21
622.84238848002
  0
LINE
  5
27B
100
AcDbEntity
  8
0
  6
CONTINUOUS
 62
    7
370
   25
100
AcDbLine
 10
-226.2705660887196
 20
622.84238848002
 11
-426.2705660887195
 21
622.84238848002
  0
ARC
  5
27C
100
AcDbEntity
  8
0
  6
CONTINUOUS
 62
    7
370
   25
100
AcDbCircle
 10
-426.2705660887195
 20
614.34238848002
 40
8.500000000000114
100
AcDbArc
 50
90
 51
270
  0
LINE
  5
27D
100
AcDbEntity
  8
0
  6
CONTINUOUS
 62
    7
370
   25
100
AcDbLine
 10
-426.2705660887195
 20
605.84238848002
 11
-226.2705660887196
 21
605.84238848002
  0
LINE
  5
27E
100
AcDbEntity
  8
0
  6
CONTINUOUS
 62
    7
370
   25
100
AcDbLine
 10
-226.2705660887196
 20
605.84238848002
 11
-226.2705660887196
 21
592.84238848002
  0
LINE
  5
27F
100
AcDbEntity
  8
0
  6
CONTINUOUS
 62
    7
370
   25
100
AcDbLine
 10
-226.2705660887196
 20
592.84238848002
 11
-426.2705660887195
 21
592.84238848002
  0
ARC
  5
280
100
AcDbEntity
  8
0
  6
CONTINUOUS
 62
    7
370
   25
100
AcDbCircle
 10
-426.2705660887195
 20
584.34238848002
 40
8.5
100
AcDbArc
 50
90
 51
270
  0
LINE
  5
281
100
AcDbEntity
  8
0
  6
CONTINUOUS
 62
    7
370
   25
100
AcDbLine
 10
-426.2705660887195
 20
575.84238848002
 11
-226.2705660887196
 21
575.84238848002
  0
LINE
  5
282
100
AcDbEntity
  8
0
  6
CONTINUOUS
 62
    7
370
   25
100
AcDbLine
 10
-226.2705660887196
 20
575.84238848002
 11
-226.2705660887196
 21
571.84238848002
  0
ARC
  5
283
100
AcDbEntity
  8
0
  6
CONTINUOUS
 62
    7
370
   25
100
AcDbCircle
 10
-444.7096550033195
 20
762.84238848002
 40
10.00000000000045
100
AcDbArc
 50
4.6507090049
 51
90
  0
LINE
  5
284
100
AcDbEntity
  8
0
  6
CONTINUOUS
 62
    7
370
   25
100
AcDbLine
 10
-426.2705660887195
 20
755.84238848002
 11
-226.2705660887196
 21
755.84238848002
  0
LINE
  5
285
100
AcDbEntity
  8
0
  6
CONTINUOUS
 62
    7
370
   25
100
AcDbLine
 10
-226.2705660887196
 20
755.84238848002
 11
-226.2705660887196
 21
742.84238848002
  0
LINE
  5
286
100
AcDbEntity
  8
0
  6
CONTINUOUS
 62
    7
370
   25
100
AcDbLine
 10
-476.2705660887195
 20
571.84238848002
 11
-226.2705660887196
 21
571.84238848002
  0
LINE
  5
287
100
AcDbEntity
  8
0
  6
CONTINUOUS
 62
    7
370
   25
100
AcDbLine
 10
-476.2705660887195
 20
712.84238848002
 11
-476.2705660887195
 21
571.84238848002
  0
LINE
  5
288
100
AcDbEntity
  8
0
  6
CONTINUOUS
 62
    7
370
   25
100
AcDbLine
 10
-494.2705660887195
 20
712.84238848002
 11
-476.2705660887195
 21
712.84238848002
  0
LINE
  5
289
100
AcDbEntity
  8
0
  6
CONTINUOUS
 62
    7
370
   25
100
AcDbLine
 10
-494.2705660887195
 20
737.84238848002
 11
-494.2705660887195
 21
712.84238848002
  0
LINE
  5
28A
100
AcDbEntity
  8
0
  6
CONTINUOUS
 62
    7
370
   25
100
AcDbLine
 10
-476.2705660887195
 20
737.84238848002
 11
-494.2705660887195
 21
737.84238848002
  0
LINE
  5
28B
100
AcDbEntity
  8
0
  6
CONTINUOUS
 62
    7
370
   25
100
AcDbLine
 10
-476.2705660887195
 20
772.84238848002
 11
-476.2705660887195
 21
737.84238848002
  0
LINE
  5
28C
100
AcDbEntity
  8
0
  6
CONTINUOUS
 62
    7
370
   25
100
AcDbLine
 10
-476.2705660887195
 20
772.84238848002
 11
-444.7096550033195
 21
772.84238848002
  0
ARC
  5
28D
100
AcDbEntity
  8
0
  6
CONTINUOUS
 62
    7
370
   25
100
AcDbCircle
 10
-426.2705660887195
 20
764.34238848002
 40
8.500000000000032
100
AcDbArc
 50
184.6507090049
 51
270
  0
ARC
  5
28E
100
AcDbEntity
  8
0
  6
CONTINUOUS
 62
    7
370
   25
100
AcDbCircle
 10
-200.0073731099885
 20
807.2537606732149
 40
8.5
100
AcDbArc
 50
270
 51
90
  0
LINE
  5
28F
100
AcDbEntity
  8
0
  6
CONTINUOUS
 62
    7
370
   25
100
AcDbLine
 10
-200.0073731099885
 20
815.7537606732149
 11
-200.0073731099885
 21
828.7537606732149
  0
ARC
  5
290
100
AcDbEntity
  8
0
  6
CONTINUOUS
 62
    7
370
   25
100
AcDbCircle
 10
-200.0073731099885
 20
837.2537606732149
 40
8.5
100
AcDbArc
 50
270
 51
90
  0
LINE
  5
291
100
AcDbEntity
  8
0
  6
CONTINUOUS
 62
    7
370
   25
100
AcDbLine
 10
-200.0073731099885
 20
845.7537606732149
 11
-200.0073731099885
 21
858.7537606732149
  0
ARC
  5
292
100
AcDbEntity
  8
0
  6
CONTINUOUS
 62
    7
370
   25
100
AcDbCircle
 10
-200.0073731099885
 20
867.2537606732149
 40
8.5
100
AcDbArc
 50
270
 51
90
  0
LINE
  5
293
100
AcDbEntity
  8
0
  6
CONTINUOUS
 62
    7
370
   25
100
AcDbLine
 10
-200.0073731099885
 20
875.7537606732149
 11
-200.0073731099885
 21
888.7537606732149
  0
ARC
  5
294
100
AcDbEntity
  8
0
  6
CONTINUOUS
 62
    7
370
   25
100
AcDbCircle
 10
-200.0073731099885
 20
897.2537606732149
 40
8.5
100
AcDbArc
 50
270
 51
90
  0
LINE
  5
295
100
AcDbEntity
  8
0
  6
CONTINUOUS
 62
    7
370
   25
100
AcDbLine
 10
-200.0073731099885
 20
905.7537606732149
 11
-200.0073731099885
 21
918.7537606732149
  0
ARC
  5
296
100
AcDbEntity
  8
0
  6
CONTINUOUS
 62
    7
370
   25
100
AcDbCircle
 10
-200.0073731099885
 20
927.2537606732149
 40
8.500000000000057
100
AcDbArc
 50
270
 51
90
  0
LINE
  5
297
100
AcDbEntity
  8
0
  6
CONTINUOUS
 62
    7
370
   25
100
AcDbLine
 10
-200.0073731099885
 20
935.7537606732149
 11
-200.0073731099885
 21
948.7537606732149
  0
ARC
  5
298
100
AcDbEntity
  8
0
  6
CONTINUOUS
 62
    7
370
   25
100
AcDbCircle
 10
-200.0073731099885
 20
957.2537606732149
 40
8.5
100
AcDbArc
 50
270
 51
90
  0
LINE
  5
299
100
AcDbEntity
  8
0
  6
CONTINUOUS
 62
    7
370
   25
100
AcDbLine
 10
-200.0073731099885
 20
965.7537606732149
 11
-200.0073731099885
 21
978.7537606732149
  0
ARC
  5
29A
100
AcDbEntity
  8
0
  6
CONTINUOUS
 62
    7
370
   25
100
AcDbCircle
 10
-200.0073731099885
 20
987.2537606732149
 40
8.5
100
AcDbArc
 50
270
 51
355.3492909951
  0
ARC
  5
29B
100
AcDbEntity
  8
0
  6
CONTINUOUS
 62
    7
370
   25
100
AcDbCircle
 10
-181.5682841954886
 20
985.7537606732149
 40
10.00000000000045
100
AcDbArc
 50
90
 51
175.3492909951
  0
LINE
  5
29C
100
AcDbEntity
  8
0
  6
CONTINUOUS
 62
    7
370
   25
100
AcDbLine
 10
-181.5682841954886
 20
995.7537606732149
 11
-150.0073731099885
 21
995.7537606732149
  0
LINE
  5
29D
100
AcDbEntity
  8
0
  6
CONTINUOUS
 62
    7
370
   25
100
AcDbLine
 10
-200.0073731099885
 20
794.7537606732149
 11
-200.0073731099885
 21
798.7537606732149
  0
LINE
  5
29E
100
AcDbEntity
  8
0
  6
CONTINUOUS
 62
    7
370
   25
100
AcDbLine
 10
-150.0073731099885
 20
794.7537606732149
 11
-150.0073731099885
 21
935.7537606732149
  0
LINE
  5
29F
100
AcDbEntity
  8
0
  6
CONTINUOUS
 62
    7
370
   25
100
AcDbLine
 10
-200.0073731099885
 20
794.7537606732149
 11
-150.0073731099885
 21
794.7537606732149
  0
LINE
  5
2A0
100
AcDbEntity
  8
0
  6
CONTINUOUS
 62
    7
370
   25
100
AcDbLine
 10
-150.0073731099885
 20
960.7537606732149
 11
-150.0073731099885
 21
995.7537606732149
  0
LINE
  5
2A1
100
AcDbEntity
  8
0
  6
CONTINUOUS
 62
    7
370
   25
100
AcDbLine
 10
-132.0073731099885
 20
960.7537606732149
 11
-150.0073731099885
 21
960.7537606732149
  0
LINE
  5
2A2
100
AcDbEntity
  8
0
  6
CONTINUOUS
 62
    7
370
   25
100
AcDbLine
 10
-132.0073731099885
 20
935.7537606732149
 11
-132.0073731099885
 21
960.7537606732149
  0
LINE
  5
2A3
100
AcDbEntity
  8
0
  6
CONTINUOUS
 62
    7
370
   25
100
AcDbLine
 10
-150.0073731099885
 20
935.7537606732149
 11
-132.0073731099885
 21
935.7537606732149
  0
ARC
  5
2A4
100
AcDbEntity
  8
0
  6
CONTINUOUS
 62
    7
370
   25
100
AcDbCircle
 10
-200.0073731099885
 20
580.191985759287
 40
8.5
100
AcDbArc
 50
270
 51
90
  0
LINE
  5
2A5
100
AcDbEntity
  8
0
  6
CONTINUOUS
 62
    7
370
   25
100
AcDbLine
 10
-200.0073731099885
 20
588.691985759287
 11
-200.0073731099885
 21
601.691985759287
  0
ARC
  5
2A6
100
AcDbEntity
  8
0
  6
CONTINUOUS
 62
    7
370
   25
100
AcDbCircle
 10
-200.0073731099885
 20
610.191985759287
 40
8.5
100
AcDbArc
 50
270
 51
90
  0
LINE
  5
2A7
100
AcDbEntity
  8
0
  6
CONTINUOUS
 62
    7
370
   25
100
AcDbLine
 10
-200.0073731099885
 20
618.691985759287
 11
-200.0073731099885
 21
631.691985759287
  0
ARC
  5
2A8
100
AcDbEntity
  8
0
  6
CONTINUOUS
 62
    7
370
   25
100
AcDbCircle
 10
-200.0073731099885
 20
640.191985759287
 40
8.5
100
AcDbArc
 50
270
 51
90
  0
LINE
  5
2A9
100
AcDbEntity
  8
0
  6
CONTINUOUS
 62
    7
370
   25
100
AcDbLine
 10
-200.0073731099885
 20
648.691985759287
 11
-200.0073731099885
 21
661.691985759287
  0
ARC
  5
2AA
100
AcDbEntity
  8
0
  6
CONTINUOUS
 62
    7
370
   25
100
AcDbCircle
 10
-200.0073731099885
 20
670.191985759287
 40
8.5
100
AcDbArc
 50
270
 51
90
  0
LINE
  5
2AB
100
AcDbEntity
  8
0
  6
CONTINUOUS
 62
    7
370
   25
100
AcDbLine
 10
-200.0073731099885
 20
678.691985759287
 11
-200.0073731099885
 21
691.691985759287
  0
ARC
  5
2AC
100
AcDbEntity
  8
0
  6
CONTINUOUS
 62
    7
370
   25
100
AcDbCircle
 10
-200.0073731099885
 20
700.191985759287
 40
8.500000000000057
100
AcDbArc
 50
270
 51
90
  0
LINE
  5
2AD
100
AcDbEntity
  8
0
  6
CONTINUOUS
 62
    7
370
   25
100
AcDbLine
 10
-200.0073731099885
 20
708.691985759287
 11
-200.0073731099885
 21
721.691985759287
  0
ARC
  5
2AE
100
AcDbEntity
  8
0
  6
CONTINUOUS
 62
    7
370
   25
100
AcDbCircle
 10
-200.0073731099885
 20
730.191985759287
 40
8.5
100
AcDbArc
 50
270
 51
90
  0
LINE
  5
2AF
100
AcDbEntity
  8
0
  6
CONTINUOUS
 62
    7
370
   25
100
AcDbLine
 10
-200.0073731099885
 20
738.691985759287
 11
-200.0073731099885
 21
751.691985759287
  0
ARC
  5
2B0
100
AcDbEntity
  8
0
  6
CONTINUOUS
 62
    7
370
   25
100
AcDbCircle
 10
-200.0073731099885
 20
760.191985759287
 40
8.5
100
AcDbArc
 50
270
 51
355.3492909951
  0
ARC
  5
2B1
100
AcDbEntity
  8
0
  6
CONTINUOUS
 62
    7
370
   25
100
AcDbCircle
 10
-181.5682841954886
 20
758.691985759287
 40
10.00000000000045
100
AcDbArc
 50
90
 51
175.3492909951
  0
LINE
  5
2B2
100
AcDbEntity
  8
0
  6
CONTINUOUS
 62
    7
370
   25
100
AcDbLine
 10
-181.5682841954886
 20
768.691985759287
 11
-150.0073731099885
 21
768.691985759287
  0
LINE
  5
2B3
100
AcDbEntity
  8
0
  6
CONTINUOUS
 62
    7
370
   25
100
AcDbLine
 10
-200.0073731099885
 20
567.691985759287
 11
-200.0073731099885
 21
571.691985759287
  0
LINE
  5
2B4
100
AcDbEntity
  8
0
  6
CONTINUOUS
 62
    7
370
   25
100
AcDbLine
 10
-150.0073731099885
 20
567.691985759287
 11
-150.0073731099885
 21
708.691985759287
  0
LINE
  5
2B5
100
AcDbEntity
  8
0
  6
CONTINUOUS
 62
    7
370
   25
100
AcDbLine
 10
-200.0073731099885
 20
567.691985759287
 11
-150.0073731099885
 21
567.691985759287
  0
LINE
  5
2B6
100
AcDbEntity
  8
0
  6
CONTINUOUS
 62
    7
370
   25
100
AcDbLine
 10
-150.0073731099885
 20
733.691985759287
 11
-150.0073731099885
 21
768.691985759287
  0
LINE
  5
2B7
100
AcDbEntity
  8
0
  6
CONTINUOUS
 62
    7
370
   25
100
AcDbLine
 10
-132.0073731099885
 20
733.691985759287
 11
-150.0073731099885
 21
733.691985759287
  0
LINE
  5
2B8
100
AcDbEntity
  8
0
  6
CONTINUOUS
 62
    7
370
   25
100
AcDbLine
 10
-132.0073731099885
 20
708.691985759287
 11
-132.0073731099885
 21
733.691985759287
  0
LINE
  5
2B9
100
AcDbEntity
  8
0
  6
CONTINUOUS
 62
    7
370
   25
100
AcDbLine
 10
-150.0073731099885
 20
708.691985759287
 11
-132.0073731099885
 21
708.691985759287
  0
ENDSEC
  0
SECTION
  2
OBJECTS
  0
DICTIONARY
  5
C
330
0
100
AcDbDictionary
281
    1
  3
ACAD_GROUP
350
D
  0
DICTIONARY
  5
D
330
C
100
AcDbDictionary
281
    1
  0
ENDSEC
  0
EOF
